Oops, an error
Loading. Please wait.

Poison Girl Bass Tab

version 2
version 2

Whole song

Interactive

by HIM
270 views 1 this week
no commentswrite comment
1 2 3 4 5
please rate
add to favorites
launch autoscroll
font size
0
reset
guitar tuner
Autoscroll
slow
fast
+/-
esc
set tempo
stop
Help us to improve Ultimate-Guitar.com Take our survey!
×
Author
Difficulty
intermediate
-------------------------------------------------------------------------------
			     Poison Girl - HIM
-------------------------------------------------------------------------------

Tabbed By : Danger_Dave 
e-mail: danger_dave32@hotmail.com


Intro/Chorus

D|-----------------|-----------------|-----------------|-------------------|
A|-----------------|-----------------|-----------------|-------------------|
E|--2-2-0-2-0-2---2|2---0-2-0-2-0----|--2-2-0-2-0-2---2|2---0-2-0-2-0------|
B|-----------------|-----------------|-----------------|-------------------|

D|-----------------|-----------------|-----------------|-------------------|
A|--2-2-0-2-0-2---2|2---0-2-0-2-0----|-5---5---5-5-5---|-------------------|
E|-----------------|-----------------|-----------------|-5-5-5-5h7-7-7-7-7-|
B|-----------------|-----------------|-----------------|-------------------|
 
Verse

D|-----------------|---------2-2-2-2-|-4-4-4-4-4-4-4-4-|-2-2-2-2---------|
A|-----------------|-4-4-4-4---------|-----------------|---------4-4-4-4-|
E|-2-2-2-2-2-2-2-2-|-----------------|-----------------|-----------------|
B|-----------------|-----------------|-----------------|-----------------|

D|-0-0-0-0-0-0-0-0-|-0-0-0-0-0-0-0-0-|-----------------|-----------------|
A|-----------------|-----------------|-----------------|-----------------|
E|-----------------|-----------------|-2-2------------2|--2--------------|
B|-----------------|-----------------|-----------------|-----------------|
 
D|-----------------|---------2-2-2-2-|-4-4-4-4-4-4-4-4-|-2-2-2-2---------|
A|-----------------|-4-4-4-4---------|-----------------|---------4-4-4-4-|
E|-2-2-2-2-2-2-2-2-|-----------------|-----------------|-----------------|
B|-----------------|-----------------|-----------------|-----------------| 

D|-0-0-0-0-0-0-0-0-|-0-0-0-0-0-0-0-0-|-----------------|-----------------|
A|-----------------|-----------------|-0-0-0-0-0-0-0-0-|-2-2-2-2-2-2-2---|
E|-----------------|-----------------|-----------------|-----------------|
B|-----------------|-----------------|-----------------|-----------------|

Bridge

D|-----------------|-----------------|-----------------|-----------------|
A|------4----2-0---|-----------------|------4----2-0---|-----------------|
E|-2---------------|-4---2-----------|-2---------------|-4---2-----------|
B|-----------------|---------5-5-2-5-|-----------------|---------5-5-2-5-|

D|-----------------|-----------------|-----------------|-----------------|
A|-2----5----4-2---|-----------------|-----------------|-----------------|
E|-----------------|-5---2---0-0-2-5-|-2--2--2-5-2-5-5-|5-5-5-5-7-7-7-7--|
B|-----------------|-----------------|-----------------|-----------------|

D|-----------------|-----------------|-----------------|-----------------|
A|-----------------|-----------------|-----------------|-----------------|
E|-2-(LET RING)----|-----------------|-----------------|-----------------|
B|-----------------|-----------------|-----------------|-----------------|

Outro

D|-----------------|-----------------|-----------------|-----------------|
A|-----------------|-----------------|-----------------|--------4-4-4-4--|
E|-2-2-2-2-2-2-2-2-|2-2-2-2-2-2-2-2-2|-2-2-2-2-4-4-4-4-|5-5-5-5----------|
B|-----------------|-----------------|-----------------|-----------------|

D|-----------------|-----------------|-----------------|-----------------|
A|-2-2-2-2-2-2-2-2-|2-2-2-2-2-2-2-2-2|-5---------------|-----------------|
E|-----------------|-----------------|--------5---7----|-----------------|
B|-----------------|-----------------|-----------------|--7-\------------|

Structure:

Intro
Verse
Chorus x2
Verse
Chorus x2
Bridge
Chorus x2
Outro


| /  slide up
| \  slide down
| h  hammer-on
| p  pull-off
| ~  vibrato
| +  harmonic
| x  Mute note
===============================================================================
Suggest correction
What's this?
You can suggest a correction to this tab. Community and Mods will review your correction and vote to approve or reject it.
comments
We did not receive enough feedback on this tab! Please rate:
print report bad tab
1 2 3 4 5
guest
You may want to rate the tab now too:
select rating
Please do not post tabs as comments. Select "correction" instead!