Oops, an error
Loading. Please wait.

Poison Girl Bass Tab

version 3
version 3

Whole song

Interactive

by HIM
1,077 views 1 this week
no commentswrite comment
1 2 3 4 5
please rate
add to favorites
launch autoscroll
font size
0
reset
guitar tuner
Tab Pro tools
  • play this tab
  • loop segment
  • change instrument
  • show fretboard
  • metronome
×
Best way to learn
"Poison Girl"
Autoscroll
slow
fast
+/-
esc
set tempo
stop
Contributor
#----------------------------------PLEASE NOTE---------------------------------#
#This file is the author's own work and represents their interpretation of the #
#song. You may only use this file for private study, scholarship, or research. #
#------------------------------------------------------------------------------##

                             POISON GIRL (Bassline)
                              As recorded by H.I.M.
(From the 2005 Album RAZORBLADE ROMANCE, AND LOVE SAID NO THE GREATEST HITS 1997-2004)

Words and Music by Ville Valo
Arranged by H.I.M.
Transcribed by Robinski

Gtr I (E A D G) - 'Untitled'

 Intro
  Q=124
 4/4
  Gtr I
  Wx7          H    E E Q
|------------|--------------|
|------------|--------------|
|------------|--------------|
|------------|--------0-7\--|


  Gtr I
  Q  Q  E E E E   +E  E +E  E E E E E   Q  Q  E E E E   +E  E +E  E E E E E
|---------------|---------------------|---------------|----------------------|
|---------------|---------------------|---------------|----------------------|
|---------------|---------------------|---------------|----------------------|
|-2--2--0-2-0-2-|-(2)-2-(2)-0-2-0-2-0-|-2--2--0-2-0-2-|-(2)-2-(2)-0-2-0-2-0--|


  Q  Q  E E E E   +E  E +E  E E E E E   Q  Q  E E E E   +E  E E E E E E E
|---------------|---------------------|---------------|--------------------||
|---------------|---------------------|---------------|--------------------||
|-2--2--0-2-0-2-|-(2)-2-(2)-0-2-0-2-0-|-5--5--5-5-5---|--------------------||
|---------------|---------------------|-------------5-|-(5)-5-5-5-7-7-7-7--||


 Verse
  E E E E E E E E   E E E E E E E E   E E E E E E E E   E E E E E E E E
|-----------------|-----------------|-----------------|------------------|
|-----------------|-----------------|-----------------|------------------|
|-----------------|-4-4-4-4-7-7-7-7-|-9-9-9-9-9-9-9-9-|-7-7-7-7-4-4-4-4--|
|-2-2-2-2-2-2-2-2-|-----------------|-----------------|------------------|


  E E E E E E E E   E +e  E +e  E +e  E +e    H    Q  E E   E E Q  H
|-----------------|-------------------------|-------------|-------------|
|-----------------|-------------------------|-------------|-------------|
|-----------------|-------------------------|-------------|-------------|
|-5-5-5-5-5-5-5-5-|-5-(5)-5-(5)-5-(5)-5-(5)-|-2---------2-|---2---------|


  E E E E E E E E   E E E E E E E E   E E E E E E E E   E E E E E E E E
|-----------------|-----------------|-----------------|------------------|
|-----------------|-----------------|-----------------|------------------|
|-----------------|-4-4-4-4-7-7-7-7-|-9-9-9-9-9-9-9-9-|-7-7-7-7-4-4-4-4--|
|-2-2-2-2-2-2-2-2-|-----------------|-----------------|------------------|


  E E E E E E E E   E +e  E +e  E +e  E +e
|-----------------|-------------------------|
|-----------------|-------------------------|
|-5-5-5-5-5-5-5-5-|-5-(5)-5-(5)-5-(5)-5-(5)-|
|-----------------|-------------------------|


  Q  E E E E E E   +E  E E E E E  Q
|----------------|---------------------||
|----------------|---------------------||
|----------------|---------------------||
|-5--5-5-5-5-5-7-|-(7)-7-7-7-7-7-/5\---||


   Chorus
    Q  Q  E E E E   +E  E +E  E E E E E   Q  Q  E E E E   +E  E +E  E E E E E
||----------------|---------------------|---------------|---------------------|
||o---------------|---------------------|---------------|---------------------|
||o---------------|---------------------|---------------|---------------------|
||--2--2--0-2-0-2-|-(2)-2-(2)-0-2-0-2-0-|-2--2--0-2-0-2-|-(2)-2-(2)-0-2-0-2-0-|


  Q  Q  E E E E   +E  E +E  E E E E E   Q  Q  E E E E   +E  E E E E E E E
|---------------|---------------------|---------------|---------------------||
|---------------|---------------------|---------------|--------------------o||
|-2--2--0-2-0-2-|-(2)-2-(2)-0-2-0-2-0-|-5--5--5-5-5---|--------------------o||
|---------------|---------------------|-------------5-|-(5)-5-5-5-7-7-7-7---||


 Verse 2
  E E E E E E E E   E E E E E E E E   E E E E E E E E   E E E E E E E E
|-----------------|-----------------|-----------------|------------------|
|-----------------|-----------------|-----------------|------------------|
|-----------------|-4-4-4-4-7-7-7-7-|-9-9-9-9-9-9-9-9-|-7-7-7-7-4-4-4-4--|
|-2-2-2-2-2-2-2-2-|-----------------|-----------------|------------------|


  E E E E E E E E   E +e  E +e  E +e  E +e    H    Q  E E   E E Q  H
|-----------------|-------------------------|-------------|-------------|
|-----------------|-------------------------|-------------|-------------|
|-----------------|-------------------------|-------------|-------------|
|-5-5-5-5-5-5-5-5-|-5-(5)-5-(5)-5-(5)-5-(5)-|-2---------2-|---2---------|


  E E E E E E E E   E E E E E E E E   E E E E E E E E   E E E E E E E E
|-----------------|-----------------|-----------------|------------------|
|-----------------|-----------------|-----------------|------------------|
|-----------------|-4-4-4-4-7-7-7-7-|-9-9-9-9-9-9-9-9-|-7-7-7-7-4-4-4-4--|
|-2-2-2-2-2-2-2-2-|-----------------|-----------------|------------------|


  E E E E E E E E   E +e  E +e  E +e  E +e
|-----------------|-------------------------|
|-----------------|-------------------------|
|-5-5-5-5-5-5-5-5-|-5-(5)-5-(5)-5-(5)-5-(5)-|
|-----------------|-------------------------|


  Q  E E E E E E   +E  E E E E E  Q
|----------------|---------------------||
|----------------|---------------------||
|----------------|---------------------||
|-5--5-5-5-5-5-7-|-(7)-7-7-7-7-7-/5\---||


   Chorus 2
    Q  Q  E E E E   +E  E +E  E E E E E   Q  Q  E E E E   +E  E +E  E E E E E
||----------------|---------------------|---------------|---------------------|
||o---------------|---------------------|---------------|---------------------|
||o---------------|---------------------|---------------|---------------------|
||--2--2--0-2-0-2-|-(2)-2-(2)-0-2-0-2-0-|-2--2--0-2-0-2-|-(2)-2-(2)-0-2-0-2-0-|


  Q  Q  E E E E   +E  E +E  E E E E E   Q  Q  E E E E   +E  E E E E E E E
|---------------|---------------------|---------------|---------------------||
|---------------|---------------------|---------------|--------------------o||
|-2--2--0-2-0-2-|-(2)-2-(2)-0-2-0-2-0-|-5--5--5-5-5---|--------------------o||
|---------------|---------------------|-------------5-|-(5)-5-5-5-7-7-7-7---||


 Interlude
  Q  Q  E Q  E   +E  Q  Q  E E E   Q  Q  E Q  E   +E  Q  Q  E E E
|--------------|-----------------|--------------|------------------|
|----4--2------|-----------------|----4--2------|------------------|
|---------4--0-|-(0)-----------0-|---------4--0-|-(0)-----------0--|
|-2------------|-----2--0--0-2---|-2------------|-----2--0--0-2----|


  Q  Q  E Q  E   +E  Q  Q  E E E   Q  Q  a E E E E   +E  E E E E E E E
|----4--2------|-----------------|-----------------|-------------------|
|---------4--0-|-(0)-----------0-|-----------------|-------------------|
|-2------------|-----2--0--0-2---|-----------5---5-|-(5)-5-5-5-7-7-7-7-|
|--------------|-----------------|-5--5--5s7---7---|-------------------|


  W          +W           +W           +W
|----------|------------|------------|--------||
|----------|------------|------------|--------||
|----------|------------|------------|--------||
|-2--------|-(2)--------|-(2)--------|-(2)----||


   Chorus 3
    Q  Q  E E E E   +E  E +E  E E E E E   Q  Q  E E E E   +E  E +E  E E E E E
||----------------|---------------------|---------------|---------------------|
||o---------------|---------------------|---------------|---------------------|
||o---------------|---------------------|---------------|---------------------|
||--2--2--0-2-0-2-|-(2)-2-(2)-0-2-0-2-0-|-2--2--0-2-0-2-|-(2)-2-(2)-0-2-0-2-0-|


  Q  Q  E E E E   +E  E +E  E E E E E   Q  Q  E E E E   +E  E E E E E E E
|---------------|---------------------|---------------|---------------------||
|---------------|---------------------|---------------|--------------------o||
|-2--2--0-2-0-2-|-(2)-2-(2)-0-2-0-2-0-|-5--5--5-5-5---|--------------------o||
|---------------|---------------------|-------------5-|-(5)-5-5-5-7-7-7-7---||


 Outro
  E E E E E E E E   E E E E E E E E   E E E E E E E E   E E E E E E E E
|-----------------|-----------------|-----------------|------------------|
|-----------------|-----------------|-----------------|------------------|
|-----------------|-----------------|-----------------|------------------|
|-2-2-2-2-2-2-2-2-|-2-2-2-2-2-2-2-2-|-2-2-2-2-4-4-4-4-|-5-5-5-5-9-9-9-9--|


  E E E E E E E E   E E E E E E E E   W          H    H
|-----------------|-----------------|----------|-----------|
|-----------------|-----------------|----------|-----------|
|-----------------|-----------------|----------|-----------|
|-7-7-7-7-7-7-7-7-|-7-7-7-7-7-7-7-7-|-0--------|-5----7----|


  >
  W          +W           +W
|----------|------------|--------*|
|----------|------------|--------*|
|----------|------------|--------*|
|-2--------|-(2)--------|-(2)----*|


Duration Legend
---------------
W - whole; H - half; Q - quarter; E - 8th; S - 16th; T - 32nd; X - 64th; a - acciaccatura
+ - note tied to previous; . - note dotted; .. - note double dotted
Uncapitalized letters represent notes that are staccato (1/2 duration)
Irregular groupings are notated above the duration line
Duration letters will always appear directly above the note/fret number it represents the
duration for.  Duration letters with no fret number below them represent rests.  Multi-
bar rests are notated in the form Wxn, where n is the number of bars to rest for.  Low
melody durations appear below the staff

Tablature Legend
----------------
 h   - hammer-on
 p   - pull-off
 b   - bend
 pb  - pre-bend
 r   - bend release (if no number after the r, then release immediately)
 /\  - slide into or out of (from/to "nowhere")
 s   - legato slide
 S   - shift slide
  - natural harmonic
[n]  - artificial harmonic
n(n) - tapped harmonic
 ~   - vibrato
 tr  - trill
 T   - tap
 TP  - trem. picking
 PM  - palm muting
\n/  - tremolo bar dip; n = amount to dip
 \n  - tremolo bar down
 n/  - tremolo bar up
/n\  - tremolo bar inverted dip
 =   - hold bend; also acts as connecting device for hammers/pulls
 <>  - volume swell (louder/softer)
 x   - on rhythm slash represents muted slash
 o   - on rhythm slash represents single note slash

Misc Legend
-----------
 |  - bar
||  - double bar
||o - repeat start
o|| - repeat end
*|  - double bar (ending)
 :  - bar (freetime)
 $  - Segno
 &  - Coda
Tempo markers -  = BPM(8/16=s8/s16), where s8 = swing 8ths, s16 = swing 16ths
comments
We did not receive enough feedback on this tab! Please rate:
print report bad tab
1 2 3 4 5
I want to post or [tab]
guest
You may want to rate the tab now too:
select rating
Please do not post tabs as comments. Select "correction" instead!