Oops, an error
Loading. Please wait.

Razorblade Kiss Bass Tab

version 3
version 3

Whole song

Interactive

by HIM
390 views 1 this week
no commentswrite comment
1 2 3 4 5
please rate
add to favorites
launch autoscroll
font size
0
reset
guitar tuner
Autoscroll
slow
fast
+/-
esc
set tempo
stop
Help us to improve Ultimate-Guitar.com Take our survey!
×
Author
Difficulty
Tuning
Jayb118 90
novice
B E A D F# B
HIM: Razorblade Kiss

Tuning: BEAD

This is a tab I wrote ages ago and posted to Bassmasta.net
back when they still had a pretty cool social network thing going on...I miss the old days lol.
I've since made a couple alterations before reposting here.

Guitar Intro 00:00

Chorus 00:07
D)---------------------------------|
A)---------------------------------|
E)-----------------244-244-244-244-| x2
B)244-244-244-244------------------|

Verse Part 1 00:22
D)------------------------------------------|
A)4444444444444444--------------------------|
E)---------------------------------77777777-| X2
B)---------------------55555555-------------|

Verse Part 2 00:38
D)-----------------------------------------------------|
A)-----------------------------------------------------|
E)-----------------555-55-222-22-----------------5r-7r-|
B)244-24-244-244------------------244-24244-244--------|

Chorus 00:53
D)-----------------------------------------------------|
A)-----------------------------------------------------| X2
E)---------------------244-244-244-244-----------------|
B)244-244-244-244--------------------------------------|

Verse Part 1 01:08
D)------------------------------------------|
A)4444444444444444--------------------------|
E)---------------------------------77777777-| X2
B)---------------------55555555-------------|

Verse Part 2 01:24
D)--------------------------------------------------------------|
A)--------------------------------------------------------------|
E)-----------------555-55-222-22-----------------5r-7r----5r-7--|r
B)244-24-244-244------------------244-24244-244-----------------|

Chorus 01:43
D)-------------------------------------|
A)-------------------------------------|
E)---------------------244-244-244-244-| x4
B)244-244-244-244----------------------|

Fill In + Guitar Solo 02:13
D)-------------------------------------------------------------------|
A)-------------------------------------------------------------------|
E)244-244-244-244-244-244-244--------244-244-244-244-244-244-244-244-|
B)------------------------------244----------------------------------|

D)--------------------------------------------------------------------|
A)--------------------------------------------------------------------|
E)------------------555-55-222-22-----------------------555-55-222-22-|
B)244-24244-244-----------------------244-24244-244-------------------|

D)-------------------------------------------------------------------|
A)-------------------------------------------------------------------|
E)------------------555-55-222-22-------------------244-244----------|
B)244-244-244-244------------------244-244-244-244----------244-2430-|

Guitar Break 02:59

Bridge to chorus 03:31
D)---------------------------|
A)---------------------------|
E)---------------------------|
B)3-000000-4-000000-22222222-|

Chorus 03:38
D)-------------------------------------|
A)-------------------------------------|
E)---------------------244-244-244-244-| x4
B)244-244-244-244----------------------|

Ending 04:09
D)----------------------------------|
A)----------------------------------|
E)----------------------------------|
B)244-244-244-244-244-244-244-2442--|

Hope you enjoy :)

Jay
Suggest correction new What's this?
You can suggest a correction to this tab. Community and Mods will review your correction and vote to approve or reject it.
comments
We did not receive enough feedback on this tab! Please rate:
print report bad tab
1 2 3 4 5
guest
You may want to rate the tab now too:
select rating
Please do not post tabs as comments. Select "correction" instead!