Oops, an error
Loading. Please wait.

Razorblade Kiss tab

version 4
version 4

Whole song

Interactive

by HIM
851 views 1 this week
no commentswrite comment
1 2 3 4 5
1 last vote to show rating
add to favorites
×
Save as Personal and add changes to this tab that will be seen only by you. Learn more ›
×
You can save this tab as Personal to edit and correct it or add notes. All changes will be seen only by you. Learn more »
launch autoscroll
font size
0
reset
how to read this tab
guitar tuner
backing track
0:00
0:00
edit
Autoscroll
slow
fast
+/-
esc
set tempo
stop
Author
Difficulty
intermediate
Razorblade Kiss
H.I.M
Razorblade Romance
Tunning - think it micht be in drop C

LEGEND

h-hammer on
p-pull off
^-bend or vibrato
\slide down fretboard
/slide up fretdoard

8-slide to chord without strumming
6
*
pm.-palm muting
x-scratch muting

Intro (0:00-0:08)
Guitar 1
e|--------------|----------------|--------------|  |
B|--------------|----------------|--------------|  |
G|--------------|----------------|--------------|  |
D|--------------|----------------|--------------|x1|
A|--------------|----------------|--------------|  |
E|3--4-4-3--4-4-|-3h4-2h3-1h2-1^-|-3--4-4-3--4-4|  |


Intro (0:08-0:22)
Guitar 1
e|---------------------------------------|  |
B|---------------------------------------|  |
G|---------------------------------------|  |
D|---------------------------------------|x2|
A|-3\5-6-4-2------7/8\6/9/11--7/8\6/9/11-|  |
E|----------------5/6\4/7/9---5/6\4/7/9--|  |
                    * * * *     * * * *

Verse (0:22-0:53)
Guitar 1
e|---------------------|--|------------|  |
B|---------------------|--|------------|  |
G|---------------------|--|------------|  |
D|-8------9-----10-----|x2|-5-66-666-6-|x3|
A|-8(x14)-9(x7)-10(x7)-|--|-5-66-666-6-|  |
E|-6------7-----8------|--|-3-44-444-4-|  |
pm .      .     .            ...

Chorus (0:53-1:08)
Guitar 1
e|---------------------------------------|  |
B|---------------------------------------|  |
G|---------------------------------------|  |
D|---------------------------------------|x2|
A|-3\5-6-4-2------7/8\6/9/11--7/8\6/9/11-|  |
E|-1\3-4-2-0------5/6\4/7/9---5/6\4/7/9--|  |
                    * * * *     * * * *
oww owww oww      oww ow ow oww ooww

Verse (1:08-1:43)
Guitar 1
e|---------------------|--|------------|  |         |
B|---------------------|--|------------|  |         |
G|---------------------|--|------------|  |         |
D|-8------9-----10-----|x2|-5-66-666-6-|x3|Pickslide|
A|-8(x14)-9(x7)-10(x7)-|--|-5-66-666-6-|  |         |
E|-6------7-----8------|--|-3-44-444-4-|  |         |
pm .      .     .            ... 

Chorus (1:43-2:14)
Guitar 1
e|---------------------------------------|  |
B|---------------------------------------|  |
G|---------------------------------------|  |
D|---------------------------------------|x4|
A|-3\5-6-4-2------7/8\6/9/11--7/8\6/9/11-|  |
E|-1\3-4-2-0------5/6\4/7/9---5/6\4/7/9--|  |
                    * * * *     * * * *

Chorus Cont. (2:14-2:29)
Guitar 1
e|-----------------------------|  |
B|-----------------------------|  |
G|-13(x6)-15(x6)-17(x6)-18(x6)-|  |
D|-----------------------------|x3|
A|-----------------------------|  |
E|-----------------------------|  |

Solo (2:29-3:00)
Guitar 1
e|--------------------------|---------------------------|
B|--------------------------|---------------------------|
G|--------------------------|---------------------------|
D|--------------------------|-----6----9--9--6-6\9/-6---|
A|-------------7--7-7~7-----|--7----------------------7\|
E|--19\-----9------------9--|---------------------------|

e|--------------------------|--------------------------|
B|--------------------------|--------------------------|
G|--------------------------|--------------------------|
D|-----6----9--9--6-6\9/-6--|-------------------9~-----|
A|--9-----------------------|--7\-9~-------9/11----11--|
E|--------------------------|--------------------------|

e|-------------------------|---------|----------------------------|
B|-------------------------|---------|--9-9--9-9--9-9--9-9--9-9---|
G|-----9----6~-------------|--9--6~--|----------------------------|
D|--9---------------9------|---------|----------------------------|
A|-------------9/11----11--|---------|----------------------------|
E|-------------------------|---------|----------------------------|

e|-------------|------------------------|--7r---------------------|
B|--7h9p7------|--9r------7-------------|----------9-----7--------|
G|--------9-8~-|-------6-----6--9--6----|-------6-----6-----9--8--|
D|-------------|------------------------|-------------------------|
A|-------------|------------------------|-------------------------|
E|-------------|------------------------|-------------------------|

e|------------------------------------------------------------|
B|--5--5h7p5h7p5h7p5h7p5h7p5h7p5h7p5h7p5h7p5h7p5h7p5h7p5h7p5h7|
G|------------------------------------------------------------|
D|------------------------------------------------------------|
A|------------------------------------------------------------|
E|------------------------------------------------------------|

e|------------------------------------------------------------|
B|--7-7h9p7h9p7h9p7h9p7h9p7h9p7h9p7h9p7h9p7h9p7h9p7h9p7h9p7h9p|
G|------------------------------------------------------------|
D|------------------------------------------------------------|
A|------------------------------------------------------------|
E|------------------------------------------------------------|

e|---9---9--9--9---9--9--9---9--9--9----------------|
B|--------------------------------------------------|
G|--------------------------------------------------|
D|--------------------------------------------------|
A|--------------------------------------------------|
E|--------------------------------------------------|

e|--11--11-11-11--11-11-11--11-11-11------|
B|----------------------------------------|
G|----------------------------------------|
D|----------------------------------------|
A|----------------------------------------|
E|----------------------------------------|

e|--12--12-12-12--12-12-12--12-12-12------|
B|----------------------------------------|
G|----------------------------------------|
D|----------------------------------------|
A|----------------------------------------|
E|----------------------------------------|

e|--14--14-14-14--14-14-14--14-14-14------|
B|----------------------------------------|
G|----------------------------------------|
D|----------------------------------------|
A|----------------------------------------|
E|----------------------------------------|

Bridge (3:00-3:29)
Guitar 1
e|----------------------7--------------|  |-5--5--|
B|--8--9-8--7h8h9p7----9---6--5-3h4h5p3|  |-----6-|
G|--------9---------------8--7---------|  |--7----|
D|-7--8--------------------------------|x3|-------|x3
A|-------------------------------------|  |-------|
E|-------------------------------------|  |-------|

Bridge Cont. (3:29-3:39)

e|--------------------------xxxxxxxx-|
B|--------------------------xxxxxxxx-|
G|--------------------------xxxxxxxx-|
D|-7-77777-7-77777-8-88888--xxxxxxxx-|
A|-7-77777-7-77777-8-88888--xxxxxxxx-|
E|-5-55555-5-55555-6-66666--xxxxxxxx-|
pm   .....   .....   .....

Chorus (3:39-4:10)
Guitar 1
e|---------------------------------------|  |
B|---------------------------------------|  |
G|---------------------------------------|  |
D|---------------------------------------|x5|
A|-3\5-6-4-2------7/8\6/9/11--7/8\6/9/11-|  |
E|-1\3-4-2-0------5/6\4/7/9---5/6\4/7/9--|  |
                    * * * *     * * * *

Outro (4:10-4:18)
Guitar 1
e|----------------------------------------|  |
B|----------------------------------------|  |
G|----------------------------------------|  |
D|----------------------------------------|x1|
A|----------------7/8\6/9/11--7/8\6/9/11~-|  |
E|-1\3-4-2-0------5/6\4/7/9---5/6\4/7/9-~-|  |
pm . . . . .

By Michael Stikovic,
comments and questions to be left at
x___razorblade-romance___x@hotmail.com

            
            
Suggest correction
Creating personal tab
Creating personal tab
You can edit any tab online and save it as your Personal.

You can edit, replace or remove any tab part or add personal notes – all changes will be seen only by you.

Personal tabs can be accessed anytime from any device, even offline.
Learn more »
Give kudos to tab author, rate the tab!
1 2 3 4 5
comments
print report bad tab
guest
You may want to rate the tab now too:
select rating
Wanna post a correction for this tab? Suggest correction