Oops, an error
Loading. Please wait.

Right Here In My Arms bass

version 3
version 3

Whole song

Interactive

by HIM
978 views 1 this week
no commentswrite comment
1 2 3 4 5
2 more votes to show rating
add to favorites
×
Save as Personal and add changes to this tab that will be seen only by you. Learn more ›
×
You can save this tab as Personal to edit and correct it or add notes. All changes will be seen only by you. Learn more »
launch autoscroll
font size
0
reset
guitar tuner
backing track
0:00
0:00
edit
Autoscroll
slow
fast
+/-
esc
set tempo
stop
#----------------------------------PLEASE NOTE---------------------------------#
#This file is the author's own work and represents their interpretation of the #
#song. You may only use this file for private study, scholarship, or research. #
#------------------------------------------------------------------------------##

                        RIGHT HERE IN MY ARMS (Bassline)
                       As recorded by His Infernal Majesty
                    (From the 2000 Album RAZORBLADE ROMANCE)

Words by Ville Valo

Music by HIM
Arranged by HIM
Transcribed by Emlyn Jones

Gtr I (E A D G) - 'Mige'

 Intro
  Fast Rock Q=153
 4/4
                 Gtr I
  Wx4            E E E E E E E E   E E E E E E E E
|------------||------------------|-----------------|
|------------||o-----------------|-----------------|
|------------||o-----------------|-3-3-3-3---------|
|------------||--5-5-5-5-5-5-5-5-|---------3-3-3-3-|


  E E E E E E E E   E E E E E E E E
|-----------------|-------------------||
|-----------------|------------------o||
|-----------------|------------------o||
|-0-0-0-0-0-0-0-0-|-0-0-0-0-0-0-0-0---||


  E E E E E E E E   E E E E E E E E   E E E E E E E E   E E E E E E E E
|-----------------|-----------------|-----------------|-----------------||
|-----------------|-----------------|-----------------|-----------------||
|-----------------|-----------------|-----------------|-----------------||
|-5-5-5-5-5-5-5-5-|-5-5-5-5-5-5-5-5-|-5-5-5-5-5-5-5-5-|-5-5-5-5-5-5-5-5-||


   Verse
    E E E E E E E E   E E E E E E E E   E E E E E E E E   E E E E E E E E
||------------------|-----------------|-----------------|------------------|
||o-----------------|-----------------|-----------------|------------------|
||o-----------------|-----------------|-3-3-3-3-3-3-3-3-|------------------|
||--5-5-5-5-5-5-5-5-|-5-5-5-5-5-5-5-5-|-----------------|-3-3-3-3-3-3-3-3--|


  1.,2.,3.
  E E E E E E E E   E E E E E E E E   E E E E E E E E   E E E E E E E E
|-----------------|-----------------|-----------------|------------------||
|-----------------|-----------------|-----------------|-----------------o||
|-----------------|-----------------|-----------------|-----------------o||
|-5-5-5-5-5-5-5-5-|-5-5-5-5-5-5-5-5-|-5-5-5-5-5-5-5-5-|-5-5-5-5-5-5-5-5--||


  4.
  Q  E Q  E E E   Q  E Q  E E E   E E E E E E E E   E E E E E E E E
|---------------|---------------|-----------------|-----------------||
|---------------|---------------|-----------------|-----------------||
|---------------|---------------|-3-3-3-3-3-3-3-3-|-3-3-3-3-3-3-3-3-||
|-5--5-5--5-5-5-|-3--3-3--3-3-3-|-----------------|-----------------||


   Chorus
    E E E E E E E E   E E E E E E E E   E E E E E E E E   E E E E E E E E   4x
||------------------|-----------------|-----------------|-------------------||
||o-----------------|-----------------|-----------------|------------------o||
||o-----------------|-3-3-3-3---------|-----------------|------------------o||
||--5-5-5-5-5-5-5-5-|---------3-3-3-3-|-0-0-0-0-0-0-0-0-|-1-1-1-1-0-0-0-0---||


  E E E E E E E E   E E E E E E E E   E E E E E E E E   E E E E E E E E
|-----------------|-----------------|-----------------|-----------------||
|-----------------|-----------------|-----------------|-----------------||
|-----------------|-----------------|-----------------|-----------------||
|-5-5-5-5-5-5-5-5-|-5-5-5-5-5-5-5-5-|-5-5-5-5-5-5-5-5-|-5-5-5-5-5-5-5-5-||


   Verse
    E E E E E E E E   E E E E E E E E   E E E E E E E E   E E E E E E E E
||------------------|-----------------|-----------------|------------------|
||o-----------------|-----------------|-----------------|------------------|
||o-----------------|-----------------|-3-3-3-3-3-3-3-3-|------------------|
||--5-5-5-5-5-5-5-5-|-5-5-5-5-5-5-5-5-|-----------------|-3-3-3-3-3-3-3-3--|


  1.
  E E E E E E E E   E E E E E E E E   E E E E E E E E   E E E E E E E E
|-----------------|-----------------|-----------------|------------------||
|-----------------|-----------------|-----------------|-----------------o||
|-----------------|-----------------|-----------------|-----------------o||
|-5-5-5-5-5-5-5-5-|-5-5-5-5-5-5-5-5-|-5-5-5-5-5-5-5-5-|-5-5-5-5-5-5-5-5--||


  2.
  Q  E Q  E E E   Q  E Q  E E E   E E E E E E E E   E E E E E E E E
|---------------|---------------|-----------------|-----------------||
|---------------|---------------|-----------------|-----------------||
|---------------|---------------|-3-3-3-3-3-3-3-3-|-3-3-3-3-3-3-3-3-||
|-5--5-5--5-5-5-|-3--3-3--3-3-3-|-----------------|-----------------||


   Chorus
    E E E E E E E E   E E E E E E E E   E E E E E E E E
||------------------|-----------------|-----------------|
||o-----------------|-----------------|-----------------|
||o-----------------|-3-3-3-3---------|-----------------|
||--5-5-5-5-5-5-5-5-|---------3-3-3-3-|-0-0-0-0-0-0-0-0-|


  1.,2.,3.            4.
  E E E E E E E E     E E E E E E E E
|------------------||--------------------||
|-----------------o||--------------------||
|-----------------o||--------------------||
|-1-1-1-1-0-0-0-0--||-1-1-1-1-0-0-0-0S===||


   Guitar Solo
    Q  E E E E E E   Q  E E Q  E E   Q  E E E E E E   Q  E E E E E E   4x
||-----------------|---------------|----------------|------------------||
||o----------------|---------------|----------------|-----------------o||
||o----------------|-5--5-5--------|----------------|-----------------o||
||--7--7-7-7-7-7-7-|--------5--5-5-|-2--2-2-2-2-2-2-|-0--2-2-2-2-2-2---||


 Interlude
  Wx7          H    Q   Q
|------------|--------------||
|------------|--------------||
|------------|--------------||
|------------|---------12S==||


   Out-Chorus
    E E E E E E E E   E E E E E E E E   E E E E E E E E   E E E E E E E E   8x
||------------------|-----------------|-----------------|-------------------||
||o-----------------|-----------------|-----------------|------------------o||
||o-----------------|-5-5-5-5---------|-----------------|------------------o||
||--7-7-7-7-7-7-7-7-|---------5-5-5-5-|-2-2-2-2-2-2-2-2-|-3-3-3-3-2-2-2-2---||


Duration Legend
---------------
W - whole; H - half; Q - quarter; E - 8th; S - 16th; T - 32nd; X - 64th; a - acciaccatura
+ - note tied to previous; . - note dotted; .. - note double dotted
Uncapitalized letters represent notes that are staccato (1/2 duration)
Irregular groupings are notated above the duration line
Duration letters will always appear directly above the note/fret number it represents the
duration for.  Duration letters with no fret number below them represent rests.  Multi-
bar rests are notated in the form Wxn, where n is the number of bars to rest for.  Low
melody durations appear below the staff

Tablature Legend
----------------
 h   - hammer-on
 p   - pull-off
 b   - bend
 pb  - pre-bend
 r   - bend release (if no number after the r, then release immediately)
 /\  - slide into or out of (from/to "nowhere")
 s   - legato slide
 S   - shift slide
  - natural harmonic
[n]  - artificial harmonic
n(n) - tapped harmonic
 ~   - vibrato
 tr  - trill
 T   - tap
 TP  - trem. picking
 PM  - palm muting
\n/  - tremolo bar dip; n = amount to dip
 \n  - tremolo bar down
 n/  - tremolo bar up
/n\  - tremolo bar inverted dip
 =   - hold bend; also acts as connecting device for hammers/pulls
 <>  - volume swell (louder/softer)
 x   - on rhythm slash represents muted slash
 o   - on rhythm slash represents single note slash

Misc Legend
-----------
 |  - bar
||  - double bar
||o - repeat start
o|| - repeat end
*|  - double bar (ending)
 :  - bar (freetime)
 $  - Segno
 &  - Coda
Tempo markers -  = BPM(8/16=s8/s16), where s8 = swing 8ths, s16 = swing 16ths

            
            
Suggest correction
Creating personal tab
Creating personal tab
You can edit any tab online and save it as your Personal.

You can edit, replace or remove any tab part or add personal notes – all changes will be seen only by you.

Personal tabs can be accessed anytime from any device, even offline.
Learn more »
Give kudos to tab author, rate the tab!
1 2 3 4 5
comments
print report bad tab
guest
You may want to rate the tab now too:
select rating
Wanna post a correction for this tab? Suggest correction