Oops, an error
Loading. Please wait.

Sigillum Diaboli Bass Tab

version 1
version 1

Whole song

Interactive

by HIM
583 views 1 this week
no commentswrite comment
1 2 3 4 5
worth learning
x 3
add to favorites
launch autoscroll
font size
0
reset
guitar tuner
Tab Pro tools
  • play this tab
  • loop segment
  • change instrument
  • show fretboard
  • metronome
×
Best way to learn
"Sigillum Diaboli"
Autoscroll
slow
fast
+/-
esc
set tempo
stop
Contributor
----------------------------------------------------------------------------
			     SIGILLUM DIABOLI - HIM
----------------------------------------------------------------------------

Tabbed By : Crimmins
e-mail: crimmins6069@hotmail.com

Tuning: Standard

Come in with the drums at :17
Chorus:
G|--------------------------------------------------------------------------|
D|--------------------------------------------------------------------------|
A|--------------------------------------------------------------------------|
E|-2/4-44-44---2/4-44-44-----4/6-66-66----7~---6~---------------------------|

Post-Chorus:
G|--------------------------------------------------------------------------|
D|--------------------------------------------------------------------------|
A|----6666-66-66-66----6666-66-66-66----6666-66-66-66----6666-66-66-66------|
E|-00---------------00---------------00---------------00--------------------|

Verse 2:
G|--------------------------------------------------------------------------|
D---------------------------------------------------------------------------|
A|--------------------------------------------------------------------------|
E|-6666666-888888-6666666666-666666666-8888888-66666666---------------------|

Chorus:
G|--------------------------------------------------------------------------|
D|--------------------------------------------------------------------------|
A|--------------------------------------------------------------------------|
E|-2/4-44-44---2/4-44-44-----4/6-66-66----7~---6~---------------------------|

Post-Chorus:
G|--------------------------------------------------------------------------|
D|--------------------------------------------------------------------------|
A|----6666-66-66-66----6666-66-66-66----6666-66-66-66----6666-66-66-66------|
E|-00---------------00---------------00---------------00--------------------|

G|--------------------------------------------------------------------------|
D|--------------------------------------------------------------------------|
A|----7777-77-77-77----7777-77-77-77----7777-77-77-77----7777-77-77-77------|
E|-00---------------00---------------00---------------00--------------------|

Chorus:
G|--------------------------------------------------------------------------|
D|--------------------------------------------------------------------------|
A|--------------------------------------------------------------------------|
E|-2/4-44-44---2/4-44-44-----4/6-66-66----7~---6~---------------------------|

Interlude:
G|--------------------------------------------------------------------------|
D|--------------------------------------------------------------------------|
A|------4~-------4~--6~--7~-----------4~--6~--7~------------4~--6~--7~------|
E|-0000----10//-------------0~--10//--------------0~--10//------------------|

G|--------------------------------------------------------------------------|
D|--------------------------------------------------------------------------|
A|-----------4~-------------------------------------------------------------|
E|-0~--10//-----------------------------------------------------------------|
 "I'm killing myslf its you...."


Solo: (It's the same as the chorus)
G|--------------------------------------------------------------------------|
D|--------------------------------------------------------------------------|
A|--------------------------------------------------------------------------|
E|-2/4-44-44---2/4-44-44-----4/6-66-66----7~---6~---------------------------|

Verse 3: (The part where it's just the bass, no guitar)
G|--------------------------------------------------------------------------|
D---------------------------------------------------------------------------|
A|--------------------------------------------------------------------------|
E|-6666666-888888-6666666666-666666666-8888888-66666666---------------------|

Chorus:
G|--------------------------------------------------------------------------|
D|--------------------------------------------------------------------------|
A|--------------------------------------------------------------------------|
E|-2/4-44-44---2/4-44-44-----4/6-66-66----7~---6~---------------------------|

After 3:23 just keep strumming the 4th fret:
G|--------------------------------------------------------------------------|
D|--------------------------------------------------------------------------|
A|--------------------------------------------------------------------------|
E|-44444444444444444444444444-444-444-4~~~----------------------------------|
  "Oh, yes you do..."


| /  slide up
| \  slide down
| h  hammer-on
| p  pull-off
| ~  vibrato
| +  harmonic
| x  Mute note
============================================================================
comments
We did not receive enough feedback on this tab! Please rate:
print report bad tab
1 2 3 4 5
I want to post or [tab]
guest
You may want to rate the tab now too:
select rating
Please do not post tabs as comments. Select "correction" instead!