Oops, an error
Loading. Please wait.

Solitary Man Bass Tab

version 1
version 1

Whole song

Interactive

by HIM
2,032 views 1 this week
no commentswrite comment
1 2 3 4 5
3 more votes to show rating
add to favorites
launch autoscroll
font size
0
reset
guitar tuner
Autoscroll
slow
fast
+/-
esc
set tempo
stop
Help us to improve Ultimate-Guitar.com Take our survey!
×
yet again, no one has tabbed this song either

Intro
|-------|
|-------|
|-------|
|--3-3--| x1

|-------------------------|
|-------------------------|
|--------5--5-5555555-----|
|--00000--0---------------| x2

Verse
|------------------------------------------------------|
|------------------------------------------------------|
|------------------------------------------------------|
|--00000000-55555555-33333333-00000023-33333333--------|

(cont.)
|-----------------------------------|
|-----------------------------------|
|-----------------------------------|
|--555555023-33333333-55555555------| x2

|---------------|
|---------------|
|---------------|
|--55555555-----| x1

Chorus
|-----------------------------------------|
|-----------------------------------------|
|-----------33333333---------55555555-----|
|--33333333---------33333333--------------| x2

|-------------------------|
|-------------------------|
|--------5--5-5555555-----|
|--00000--0---------------| x4

|-------|
|-------|
|-------|
|--3-3--|

Verse
|------------------------------------------------------|
|------------------------------------------------------|
|------------------------------------------------------|
|--00000000-55555555-33333333-00000023-33333333--------|

(cont.)
|-----------------------------------|
|-----------------------------------|
|-----------------------------------|
|--555555023-33333333-55555555------| x2

|---------------|
|---------------|
|---------------|
|--55555555-----| x1

Chorus
|-----------------------------------------|
|-----------------------------------------|
|-----------33333333---------55555555-----|
|--33333333---------33333333--------------| x2

|-------------------------|
|-------------------------|
|--------5--5-5555555-----|
|--00000--0---------------| x4

Bridge
|-------------------------|
|-------------------------|
|--------5~~~----5~~~-----|
|--0~~~----0~~~-----------| x1

|-------------------------------------|
|-------------------------------------|
|------3~~-----5~~-----3~~----5~~-----|
|--3~~-----3~~-----3~~----3~~---------|

|-----------|
|-----------|
|-----------|
|--0~~~-----| x5

Chorus
|-----------------------------------------|
|-----------------------------------------|
|-----------33333333---------55555555-----|
|--33333333---------33333333--------------| x2

|-------------------------|
|-------------------------|
|--------5--5-5555555-----|
|--00000--0---------------| (Play that till the end)

End Note
|----------|
|----------|
|----------|
|--0~~~~---|

thats it. in the verse, the amount that you play each note might be off a little, but if 
listen to the song you can figure it out. if you have any 
you can e-mail me at lit_up_let_down@yahoo.com or chads_in_hi_fi@yahoo.com
Suggest correction
Give kudos to tab author, rate the tab!
1 2 3 4 5
comments
print report bad tab
guest
You may want to rate the tab now too:
select rating
Wanna post a correction for this tab? Suggest correction