Oops, an error
Loading. Please wait.

Soul On Fire Bass Tab

version 2
version 2

Whole song

Interactive

by HIM
432 views 1 this week
no commentswrite comment
1 2 3 4 5
please rate
add to favorites
launch autoscroll
font size
0
reset
guitar tuner
Tab Pro tools
  • play this tab
  • loop segment
  • change instrument
  • show fretboard
  • metronome
×
Best way to learn
"Soul On Fire"
Autoscroll
slow
fast
+/-
esc
set tempo
stop
Contributor
#----------------------------------PLEASE NOTE---------------------------------#
#This file is the author's own work and represents their interpretation of the #
#song. You may only use this file for private study, scholarship, or research. #
#------------------------------------------------------------------------------##

                             SOUL ON FIRE (Bassline)
                              As recorded by H.I.M.
                        (From the 2003 Album LOVE METAL)

Words and Music by Ville Vallo
Transcribed by gitarre & bass 06.03

Gtr I (B E A D) - 'Untitled'

   Intro
    E=178
    Amadd9
   4/4
    Gtr I
    S S  S S  S S S  S S  S S S  S S  S  S  8x
||------------------------------------------||-|
||o----------------------------------------o||-|
||o-0-0-15-0-15-0-0-14-0-14-0-0-10-0-10-12-o||-|
||------------------------------------------||-|


   Verse
    Q=89
                                                 F5    G5
    S S  S S  S S S  S S  S S S  S S  S  S 15x E E E E E E S S E
||------------------------------------------||--------------------||
||o----------------------------------------o||-----------------5--||
||o-0-0-15-0-15-0-0-14-0-14-0-0-10-0-10-12-o||-------------2-3----||
||------------------------------------------||---1-1---3-3--------||


 Chorus
  E=178
  A5
  E E E S S +S  S S S +S  S S S   E E +E  S S +E  E +S  S E
|-------------------------------|---------------------------|
|-------------------------------|---------------------------|
|-0-0-0-0-0-(0)-0-0-0-(0)-0-0-0-|-0-0-(0)-0-0-(0)-0-(0)-0-0-|
|-------------------------------|---------------------------|


  F5                                  G5
  E E +S  S S S +S  S S S +S  S S S   E E +S  S S S +S  S E S S E
|-----------------------------------|-------------------------------|
|-----------------------------------|---------------------------5---|
|-----------------------------------|-----------------------2-3-----|
|-1-1-(1)-1-1-1-(1)-1-1-1-(1)-1-1-1-|-3-3-(3)-3-3-3-(3)-3-3---------|


  A5                                B5
  E E +E  S S +S  S S S +S  S S S   E E +S  S S S +E  S S +S  S S S
|---------------------------------|---------------------------------|
|---------------------------------|---------------------------------|
|-0-0-(0)-0-0-(0)-0-0-0-(0)-0-0-0-|-2-2-(2)-2-2-2-(2)-2-2-(2)-2-2-2-|
|---------------------------------|---------------------------------|


  D5                              F5          G5
  E E +S  S S S +E  S S S S S S   E E +S  S S S +S  S S S E E
|-------------------------------|-----------------------------||
|-------------------------------|-----------------------------||
|-5-5-(5)-5-5-5-(5)-5-5-5-5-5-5-|-------------------------3---||
|-------------------------------|-1-1-(1)-1-1-3-(3)-3-3-3---3-||


   Interlude
    S S  S S  S S S  S S  S S S  S S  S  S  4x
||------------------------------------------||-|
||o----------------------------------------o||-|
||o-0-0-15-0-15-0-0-14-0-14-0-0-10-0-10-12-o||-|
||------------------------------------------||-|


   Verse
    Q=89
    Amadd9                                       F5    G5
    S S  S S  S S S  S S  S S S  S S  S  S 15x E E E E E E S S E
||------------------------------------------||---------------------||
||o----------------------------------------o||-----------------5---||
||o-0-0-15-0-15-0-0-14-0-14-0-0-10-0-10-12-o||-------------2-3-----||
||------------------------------------------||---1-1---3-3---------||


 Chorus
  E=178
  A5
  E E E S S +S  S S S +S  S S S   E E +E  S S +E  E +S  S E
|-------------------------------|---------------------------|
|-------------------------------|---------------------------|
|-0-0-0-0-0-(0)-0-0-0-(0)-0-0-0-|-0-0-(0)-0-0-(0)-0-(0)-0-0-|
|-------------------------------|---------------------------|


  F5                                  G5
  E E +S  S S S +S  S S S +S  S S S   E E +S  S S S +S  S E S S E
|-----------------------------------|-------------------------------|
|-----------------------------------|---------------------------5---|
|-----------------------------------|-----------------------2-3-----|
|-1-1-(1)-1-1-1-(1)-1-1-1-(1)-1-1-1-|-3-3-(3)-3-3-3-(3)-3-3---------|


  A5                                B5
  E E +E  S S +S  S S S +S  S S S   E E +S  S S S +E  S S +S  S S S
|---------------------------------|---------------------------------|
|---------------------------------|---------------------------------|
|-0-0-(0)-0-0-(0)-0-0-0-(0)-0-0-0-|-2-2-(2)-2-2-2-(2)-2-2-(2)-2-2-2-|
|---------------------------------|---------------------------------|


  D5                              F5          G5
  E E +S  S S S +E  S S S S S S   E E +S  S S S +S  S S S E E
|-------------------------------|-----------------------------||
|-------------------------------|-----------------------------||
|-5-5-(5)-5-5-5-(5)-5-5-5-5-5-5-|-------------------------3---||
|-------------------------------|-1-1-(1)-1-1-3-(3)-3-3-3---3-||


 Guitar Solo
  F                                   Am
  E E +S  S S S +S  S S S +S  S S S   E E +E  S S +S  S S S +S  S S S
|-----------------------------------|---------------------------------|
|-----------------------------------|---------------------------------|
|-----------------------------------|-0-0-(0)-0-0-(0)-0-0-0-(0)-0-0-0-|
|-1-1-(1)-1-1-1-(1)-1-1-1-(1)-1-1-1-|---------------------------------|


  F                                   Am
  E E +S  S S S +S  S S S +S  S S S   E E +E  S S +S  S S S +S  S S S
|-----------------------------------|-----------------------------------|
|-----------------------------------|-----------------------------------|
|-----------------------------------|-0-0-(0)-0-0-(0)-0-0-0-(0)-0-0-0---|
|-1-1-(1)-1-1-1-(1)-1-1-1-(1)-1-1-1-|-----------------------------------|


  A5                                B5
  E E +E  S S +S  S S S +S  S S S   E E +S  S S S +E  S S +S  S S S
|---------------------------------|---------------------------------|
|---------------------------------|---------------------------------|
|-0-0-(0)-0-0-(0)-0-0-0-(0)-0-0-0-|-2-2-(2)-2-2-2-(2)-2-2-(2)-2-2-2-|
|---------------------------------|---------------------------------|


  D5                              F5          G5
  E E +S  S S S +E  S S S S S S   E E +S  S S S +S  S S S E E
|-------------------------------|-----------------------------||
|-------------------------------|-----------------------------||
|-5-5-(5)-5-5-5-(5)-5-5-5-5-5-5-|-------------------------3---||
|-------------------------------|-1-1-(1)-1-1-3-(3)-3-3-3---3-||


 Chorus
  A5
  E E E S S +S  S S S +S  S S S   E E +E  S S +E  E +S  S E
|-------------------------------|---------------------------|
|-------------------------------|---------------------------|
|-0-0-0-0-0-(0)-0-0-0-(0)-0-0-0-|-0-0-(0)-0-0-(0)-0-(0)-0-0-|
|-------------------------------|---------------------------|


  F5                                  G5
  E E +S  S S S +S  S S S +S  S S S   E E +S  S S S +S  S E S S E
|-----------------------------------|-------------------------------|
|-----------------------------------|---------------------------5---|
|-----------------------------------|-----------------------2-3-----|
|-1-1-(1)-1-1-1-(1)-1-1-1-(1)-1-1-1-|-3-3-(3)-3-3-3-(3)-3-3---------|


  A5                                B5
  E E +E  S S +S  S S S +S  S S S   E E +S  S S S +E  S S +S  S S S
|---------------------------------|---------------------------------|
|---------------------------------|---------------------------------|
|-0-0-(0)-0-0-(0)-0-0-0-(0)-0-0-0-|-2-2-(2)-2-2-2-(2)-2-2-(2)-2-2-2-|
|---------------------------------|---------------------------------|


  D5                                           F5
  E E +S  S S S +E  S S S S S S   W            E E +S  S S S +S  S S S +S  S S S  4x
|-------------------------------|----------||-------------------------------------||
|-------------------------------|----------||o-----------------------------------o||
|-5-5-(5)-5-5-5-(5)-5-5-5-5-5-5-|----------||o-----------------------------------o||
|-------------------------------|----------||--1-1-(1)-1-1-1-(1)-1-1-1-(1)-1-1-1--||


   Outro
    S S  S S  S S S  S S  S S S  S S  S  S  8x W
||------------------------------------------||------*|
||o----------------------------------------o||------*|
||o-0-0-15-0-15-0-0-14-0-14-0-0-10-0-10-12-o||------*|
||------------------------------------------||------*|


Duration Legend
---------------
W - whole; H - half; Q - quarter; E - 8th; S - 16th; T - 32nd; X - 64th; a - acciaccatura
+ - note tied to previous; . - note dotted; .. - note double dotted
Uncapitalized letters represent notes that are staccato (1/2 duration)
Irregular groupings are notated above the duration line
Duration letters will always appear directly above the note/fret number it represents the
duration for.  Duration letters with no fret number below them represent rests.  Multi-
bar rests are notated in the form Wxn, where n is the number of bars to rest for.  Low
melody durations appear below the staff

Tablature Legend
----------------
 h   - hammer-on
 p   - pull-off
 b   - bend
 pb  - pre-bend
 r   - bend release (if no number after the r, then release immediately)
 /\  - slide into or out of (from/to "nowhere")
 s   - legato slide
 S   - shift slide
  - natural harmonic
[n]  - artificial harmonic
n(n) - tapped harmonic
 ~   - vibrato
 tr  - trill
 T   - tap
 TP  - trem. picking
 PM  - palm muting
\n/  - tremolo bar dip; n = amount to dip
 \n  - tremolo bar down
 n/  - tremolo bar up
/n\  - tremolo bar inverted dip
 =   - hold bend; also acts as connecting device for hammers/pulls
 <>  - volume swell (louder/softer)
 x   - on rhythm slash represents muted slash
 o   - on rhythm slash represents single note slash

Misc Legend
-----------
 |  - bar
||  - double bar
||o - repeat start
o|| - repeat end
*|  - double bar (ending)
 :  - bar (freetime)
 $  - Segno
 &  - Coda
Tempo markers -  = BPM(8/16=s8/s16), where s8 = swing 8ths, s16 = swing 16ths
comments
We did not receive enough feedback on this tab! Please rate:
print report bad tab
1 2 3 4 5
I want to post or [tab]
guest
You may want to rate the tab now too:
select rating
Please do not post tabs as comments. Select "correction" instead!