Oops, an error
Loading. Please wait.

Stigmata Diaboli Bass Tab

version 1
version 1

Whole song

Interactive

by HIM
325 views 1 this week
no commentswrite comment
1 2 3 4 5
3 more votes to show rating
add to favorites
launch autoscroll
font size
0
reset
guitar tuner
Autoscroll
slow
fast
+/-
esc
set tempo
stop
Help us to improve Ultimate-Guitar.com Take our survey!
×
Author
Difficulty
Song:Stigmata Diaboli
Artist:HIM
Album:666 Ways To Love
Track:1
Tuning:Standard 5-string tuning (BEADG) or Tuned Down 4-String Bass(BEAD)
im only 13 and i learned this by ear so no bad comments please.

Intro:
D|---------------------------------------------------------|Repeat Once
A|o-------------------------------------------------------o|
E|o-----------------------------------------------------5-o|
B|--5555745----5555742--4-5-----5555745----5555742--0------|

Rest for a lil

Chorus:
D|---------------------------------------------------------|Repeat Once
A|o-------------------------------------------------------o|
E|o--2444--44-----2444--44------------------777----666----o|
B|---------------------------2444--44----------------------|
          "im your christ and i want you"

Verse Thing:
D|---------------------------------------------------------|
A|-444444444444444444444444444444444444444444444444444444--|
E|---------------------------------------------------------|
B|---------------------------------------------------------|

D|----------------------------------------------------------------------|
A|----------------------------------------------------------------------|
E|4444444444444444-77777777-66666666-4444444444444444-77777777-66666666-|
B|----------------------------------------------------------------------|

Chorus

Verse Thing 2:
D|----------------------------------------------------------|Repeat once
A|o4444444444444444444444444444444444444444444444444444444-o|
E|o--------------------------------------------------------o|
B|----------------------------------------------------------|

D|----------------------------------------------------------|
A|-6666666666666666666666666777777777777777777777777777777--|
E|----------------------------------------------------------|
B|----------------------------------------------------------|

Chorus x2

Intro

then this fill at the end:

D|----------------------------------------------------------|
A|----------------------------------------------------------|
E|----------------------------------5--4-(let ring)---------|
B|-5555745-----------5555742---0----------------------------|

End

thats it if u have any problems e-mail me at ByndBliefNathan8@verizon.net
Suggest correction
Give kudos to tab author, rate the tab!
1 2 3 4 5
comments
print report bad tab
guest
You may want to rate the tab now too:
select rating
Wanna post a correction for this tab? Suggest correction