Oops, an error
Loading. Please wait.

Stigmata Diaboli tab

version 1
version 1

Whole song

Interactive

by HIM
992 views 1 this week
2 commentsread comments
1 2 3 4 5
2 more votes to show rating
add to favorites
×
Save as Personal and add changes to this tab that will be seen only by you. Learn more ›
×
You can save this tab as Personal to edit and correct it or add notes. All changes will be seen only by you. Learn more »
launch autoscroll
font size
0
reset
how to read this tab
guitar tuner
edit
Autoscroll
slow
fast
+/-
esc
set tempo
stop
Author
Stigmata Diaboli
by HIM

- Even though there's no solo and Ville sounds like Dracula
  I prefer this over Sigillum Diaboli
- h=hammer-on, p=pull-off
- /=slide
- T=ten (10 duh!)
- a PM^ means to mute the note above

Intro
e|-----------------------------------------------------------|
B|-----------------------------------------------------------|
G|------1-------------1--------------1-------------1---------|
D|--------1-2~~~--------1---1-2--------1-2~~~--------1-------|
A|-2222----------2222-----4-----2222----------2222-----4-2-0-|
E|-0000----------0000-----------0000----------0000-----------|
PM ^^^^          ^^^^           ^^^^          ^^^^

Verse
e|----------------------------------------|
B|----------------------------------------|
G|----------------------------------------|
D|-9/6------------------------------------|
A|-9/6-6666666-66666666-99999999-44444444-|
E|-7/4-4444444-44444444-77777777-22222222-|
PM     ^^^^^^^ ^^^^^^^^ ^^^^^^^^ ^^^^^^^^

Chorus
e|----------------------------------|
B|----------------------------------|
G|-----------------4/66666--444-333-|
D|-4/66666-4/66666-4/66666--444-333-|
A|-4/66666-4/66666-2/44444--222-111-|
E|-2/44444-2/44444------------------|

Post-Chorus
e|--------------------------|
B|----7575---75---75---75---|
G|----6666---66---66---66---|
D|-44-4444-4-44-4-44-4-44-4-|
A|-44------4----4----4----4-|
E|--------------------------|
PM ^^      ^    ^    ^    ^

Verse 2 (verse 1 plus this)
e|--------------------------------------|
B|--------------------------------------|
G|-6/8888888-88888888-88888888-66666666-|
D|--------------------------------------|
A|--------------------------------------|
E|--------------------------------------|

Interlude                   x4                         x2
e|--------------------------|--------------------------|
B|----7575---75---75---75---|----9797---97---97---97---|
G|----6666---66---66---66---|----8888---88---88---88---|
D|-44-4444-4-44-4-44-4-44-4-|-66-6666-6-66-6-66-6-66-6-|
A|-44------4----4----4----4-|-66------6----6----6----6-|
E|--------------------------|--------------------------|
PM ^^      ^    ^    ^    ^   ^^      ^    ^    ^    ^

e|--------------------------|-----------------------------|
B|----T8T8---8T---T8---8T---|-8----T----8----T----T---T---|
G|----9999---99---99---99---|-9----9----9----9----9---9---|
D|-77-7777-7-77-7-77-7-77-7-|-7-77-7-77-7-77-7-77-7-7-7-7-|
A|-77------7----7----7----7-|---77---77---77---77---7---7-|
E|--------------------------|-----------------------------|
PM ^^      ^    ^    ^    ^     ^^   ^^   ^^   ^^   ^   ^

You figure out the order!
Peace, I'm out...

            
            
Suggest correction
Creating personal tab
Creating personal tab
You can edit any tab online and save it as your Personal.

You can edit, replace or remove any tab part or add personal notes – all changes will be seen only by you.

Personal tabs can be accessed anytime from any device, even offline.
Learn more »
Give kudos to tab author, rate the tab!
1 2 3 4 5
comments
print report bad tab
2 comments total.
0 reply
hXcHIMfan 62 Feb 04, 2007 11:49 PM

some bits are wrong dude. the little riff in the intro is messed up and the riff after the chorus is weird

0 reply
Reject_666_6 162 May 09, 2007 05:16 PM

hmm, come to think of it you're right. I think i based too much of it on sigillum diaboli. however i disagree about the intro, i tabbed the notes one string higher but they're the right notes.

guest
You may want to rate the tab now too:
select rating
Wanna post a correction for this tab? Suggest correction