Oops, an error
Loading. Please wait.

The Funeral Of Hearts Bass Tab

version 2
version 2

Whole song

Interactive

by HIM
896 views 1 this week
2 commentsread comments
1 2 3 4 5
please rate
add to favorites
launch autoscroll
font size
0
reset
guitar tuner
Tab Pro tools
  • play this tab
  • loop segment
  • change instrument
  • show fretboard
  • metronome
×
Best way to learn
"The Funeral Of Hearts"
Autoscroll
slow
fast
+/-
esc
set tempo
stop
Contributor
HIM: The Funeral Of Hearts [Single Edit] (from „Love Metal“) 

Begins with the Chorus: 

G|----------------|----------------|----------------|----------------|
D|----------------|----------------|----------------|----------------|
A|----------------|----------------|5-5-5-5-5-5-5-5-|----------------|
E|2-2-2-2-2-2-2-2-|0-0-0-0-0-0-0-0-|----------------|5-5-5-5-4-4-4-4-| 2x 

Then the Verse: 

G|----------------|----------------|----------------|----------------|
D|----------------|----------------|----------------|----------------|
A|----------------|----------------|----------------|----------------|
E|2-2-2-2-2-2-2-2-|0-0-0-0-0-0-0-0-|5-5-5-5-5-5-5-5-|7-7-7-7-7-7-7-7-|

G|----------------|----------------|----------------|--------------2-|
D|----------------|----------------|----------------|--------3-2-3---|
A|----------------|----------------|----------------|----------------|
E|2-2-2-2-2-2-2-2-|0-0-0-0-0-0-0-0-|2-2-2-2-2-2-2-2-|2-2-2-2---------|

G|----------------|----------------|----------------|----------------|
D|----------------|----------------|----------------|----------------|
A|----------------|----------------|----------------|----------------|
E|2-2-2-2-2-2-2-2-|0-0-0-0-0-0-0-0-|5-5-5-5-5-5-5-5-|7-7-7-7-7-7-7-7-|

G|----------------|----------------|----------------|----------------|
D|----------------|----------------|----------------|----------------|
A|----------------|----------------|5-5-5-5-5-5-5-5-|-2-2-----3-3----|
E|2-2-2-2-2-2-2-2-|0-0-0-0-0-0-0-0-|----------------|----------------|

Chorus again: 

G|----------------|----------------|----------------|----------------|
D|----------------|----------------|----------------|----------------|
A|----------------|----------------|5-5-5-5-5-5-5-5-|----------------|
E|2-2-2-2-2-2-2-2-|0-0-0-0-0-0-0-0-|----------------|5-5-5-5-4-4-4-4-| 4x 

Here comes the Verse again. 

Then Linde’s Guitar Solo which is (for Bass) just the Chorus (2x) again. 

Part with “The heretic seal beyond divine…”:

G|----------------|----------------|----------------|---------------------|
D|----------------|----------------|----------------|---------------------|
A|5-5-5-5-5-5-5-5-|7-7-7-7-7-7-7-7-|8-8-8-8-9-9-9-9-|12-12-12-12-7-7-7-7--|
E|----------------|----------------|----------------|---------------------| 2x 

G|----------------|----------------|----------------|----------------| 
D|----------------|----------------|----------------|----------------| 
A|5-5-5-5-5-5-5-5-|-2-2-----3-3----|----------------|----------------| 
E|----------------|----------------|2-2-2-2-2-2-2-2-|2-2-2-2---------|

The short vocal-only part now, then the Chorus has been shifted up: 

G|----------------|----------------|
D|----------------|----------------|
A|----------------|----------------|
E|0-0-0-0-0-0-0-0-|7-7-7-7-6-6-6-6-| (rest of the half vocal-only chorus) 

New Chorus till end: 

G|----------------|----------------|----------------|----------------|
D|----------------|----------------|----------------|----------------|
A|----------------|----------------|----------------|----------------|
E|4-4-4-4-4-4-4-4-|2-2-2-2-2-2-2-2-|0-0-0-0-0-0-0-0-|7-7-7-7-6-6-6-6-|
comments
We did not receive enough feedback on this tab! Please rate:
print report bad tab
1 2 3 4 5
2 comments total.
0 reply
boycew02 wrote on July 20 2007, 10:36 am

Not bad but there are a few things.

In the last bar of the the first and third line of the chorus it goes:

G|----------------|----------------|
D|----------------|----------------|
A|5-5-5-5-5-5-5-5-|----------------|
E|----------------|5-5-5-5-7-7-7-7-|

At the end of the second line of the verse it goes:

G|----------------|
D|----------------|
A|--------5-3-----|
E|2-2-2-2-----6-5-|

And at the very end of the verse just before the chorus it goes:

G|----------------|
D|----------------|
A|-2-2-----4-4----|
E|----------------|

Apart from those however it looks pretty good. :)

0 reply
boycew02 wrote on July 20 2007, 10:40 am

Sorry, got the second line of the verse wrong myself in my last comment. It goes:

G|----------------|
D|----------------|
A|--------4-2-----|
E|2-2-2-2-----5-4-|

I want to post or [tab]
guest
You may want to rate the tab now too:
select rating
Please do not post tabs as comments. Select "correction" instead!