Oops, an error
Loading. Please wait.

Under The Rose Bass Tab

version 1
version 1

Whole song

Interactive

by HIM
1,316 views 1 this week
no commentswrite comment
1 2 3 4 5
x 5
add to favorites
launch autoscroll
font size
0
reset
guitar tuner
Autoscroll
slow
fast
+/-
esc
set tempo
stop
Help us to improve Ultimate-Guitar.com Take our survey!
×
Author
Main Riff

G-----------|----------------------|
D-----------|----------------------|
A-----------|----------------------| X 2
E-7-5-7-8-10|7-5-8-5-7-------------|  


   I Dream of the winter in my heart turinging to spring
G-------------------------------------------------------|
D-------------------------------------------------------|
A-------------------------------------------------------|MAIN RIFF
E33333333333333333777777777777777777777777777777770-----|




While the ice gives way under my feet

G---------------------------------|
D---------------------------------|
A---------------------------------|MAIN RIFF
E333333333333333333377777777777770|


And so I drown With The Sun
G-----------------------------|
D-----------------------------|
A-----------------------------|
E0-----------------------2-222|


 I've Been buring in water and drowning in flame
G-------------------------------------------------|
D-------------------------------------------------|
A-------------------------------------------------|
E----------333333333333333333335555555555550000000|

 To Prove you wrong and scare you away
G--------------------------------------|
D--------------------------------------|
A--------------------------------------|
E--333333333333333333333555555555500000|

 I admit my defeat and want back home
G---------------------------------------|
D---------------------------------------|
A---------------------------------------|
E3333333555555555555555555555555000000--|


Your hearts under the rose
G--------------------------|
D--------------------------|
A--------------------------|
E----3------5---------0----|


MAIN RIFF
   I open my eyes with a sigh of relife
G--------------------------------------|
D--------------------------------------|
A--------------------------------------|MAIN RIFF
E--333333333377777777777777777777000000|

 As The Warmth of summer sunlight dances around me
G---------------------------------------------------------|
D---------------------------------------------------------|
A---------------------------------------------------------|MAIN RIFF
E33333333333333333333333377777777777777777777777700000000--------|



 And I see you with dead leaves in your hands
G--------------------------------------------|
D--------------------------------------------|
A--------------------------------------------|
E----------0----------------------------2222-|




 I've Been buring in water and drowning in flame
G-------------------------------------------------|
D-------------------------------------------------|
A-------------------------------------------------|
E----------333333333333333333335555555555550000000|

 To Prove you wrong and scare you away
G--------------------------------------|
D--------------------------------------|
A--------------------------------------|
E--333333333333333333333555555555500000|

 I admit my defeat and want back home
G---------------------------------------|
D---------------------------------------|
A---------------------------------------|
E3333333555555555555555555555555000000--|


Your hearts under the rose
G--------------------------|
D--------------------------|
A--------------------------|
E----3------5---------0----|


  SOLO Those are 10s not 1s and 0s
G-------------------------|
D-------------------------|
A-------------------------|11x or 12
E1010101010101010-66666666|



G----------------------------------|
D----------------------------------|
A----------------------------------|
E-0----------------------------2222|




 I've Been buring in water and drowning in flame
G-------------------------------------------------|
D-------------------------------------------------|
A-------------------------------------------------|
E----------333333333333333333335555555555550000000|

 To Prove you wrong and scare you away
G--------------------------------------|
D--------------------------------------|
A--------------------------------------|
E--333333333333333333333555555555500000|

 I admit my defeat and want back home
G---------------------------------------|
D---------------------------------------|
A---------------------------------------|
E3333333555555555555555555555555000000--|


Your hearts under the rose
G--------------------------|
D--------------------------|
A--------------------------|
E----3------5---------0----|


 I've Been buring in water and drowning in flame
G-------------------------------------------------|
D-------------------------------------------------|
A-------------------------------------------------|
E----------333333333333333333335555555555550000000|

 To Prove you wrong and scare you away
G--------------------------------------|
D--------------------------------------|
A--------------------------------------|
E--333333333333333333333555555555500000|

 I admit my defeat and want back home
G---------------------------------------|
D---------------------------------------|
A---------------------------------------|
E3333333555555555555555555555555000000--|


Your hearts under the rose
G--------------------------|
D--------------------------|
A--------------------------|
E----3------5---------0----|


G-----------|
D-----------|
A-----------|
E-7-5-7-8-10|


Your hearts under the rose
G--------------------------|
D--------------------------|
A--------------------------|
E----3------5---------0----|


G-----------|
D-----------|
A-----------|
E-7-5-7-8-10|


Your hearts under the rose
G--------------------------|
D--------------------------|
A--------------------------|
E----3------5---------0----|


G-----------|
D-----------|
A-----------|
E-7-5-7-8-10|


Your hearts under the rose
G--------------------------|
D--------------------------|
A--------------------------|
E----3------5--------------|






Heres that creepy part at the end
He either does this        or a bunch of zeros
G------------------------|--------|
D------------------------|--------|
A----------15----------14|--------|
E-12-13-12----12-13-12---|-0-0-0-0|


Suggest correction
comments
print report bad tab
guest
You may want to rate the tab now too:
select rating
Wanna post a correction for this tab? Suggest correction