Oops, an error
Loading. Please wait.

Vampire Heart intro tab

version 2
version 2
by HIM
3,986 views 1 this week
3 commentsread comments
1 2 3 4 5
x 5
add to favorites
×
Save as Personal and add changes to this tab that will be seen only by you. Learn more ›
×
You can save this tab as Personal to edit and correct it or add notes. All changes will be seen only by you. Learn more »
launch autoscroll
font size
0
reset
how to read this tab
guitar tuner
edit
Autoscroll
slow
fast
+/-
esc
set tempo
stop
Author
Difficulty
HIM
Vampire Heart
Dark Light


E|--9-------9-------9---10----------------------|
B|------------------------------10------12------|
G|----11-11---11-11---11--11-11---11-11---11----|  x2
D|----------------------------------------------|
A|----------------------------------------------|
E|----------------------------------------------|
This is also played after the guitar intro w/distortion....listen to the song to see 
i'm talkin about
here's the cool rift during the courous
......scorching the blood in my....{this is where u play it}
E|---------------------------------------------|
B|---------------------------------------------|
G|---------------------------------------------|
D|--0-7-4-0-5-4-0-7-4-0-5-4-0-7-4--------------|
A|---------------------------------------------|
E|---------------------------------------------|

This shouldn't be very hard....this is my first tab...i've listened to this song alot 
tryed out every possible intro ...and this is the closest one to it.....good luck and ROCK ON!

            
            
Suggest correction
Creating personal tab
Creating personal tab
You can edit any tab online and save it as your Personal.

You can edit, replace or remove any tab part or add personal notes – all changes will be seen only by you.

Personal tabs can be accessed anytime from any device, even offline.
Learn more »
comments
print report bad tab
3 comments total.
0 reply
hak_hap 300 Nov 24, 2005 09:43 PM

this is the intro plus some part of the chorus...Come on! tab the whole song, this is stupid

0 reply
punkrocker147 31 Oct 14, 2006 10:06 AM

agreed

0 reply
Kiotaka 40 Aug 18, 2007 12:49 PM

whole song please

guest
You may want to rate the tab now too:
select rating
Wanna post a correction for this tab? Suggest correction