Oops, an error
Loading. Please wait.
We have an official Wings Of A Butterfly tab made by UG professional guitarists. Check out the tab »
×
by HIM
24,004 views 12 this week
8 commentsread comments
1 2 3 4 5
x 10
add to favorites
×
Save as Personal and add changes to this tab that will be seen only by you. Learn more ›
×
You can save this tab as Personal to edit and correct it or add notes. All changes will be seen only by you. Learn more »
launch autoscroll
font size
0
reset
how to read this tab
guitar tuner
backing track
0:00
0:00
edit
Autoscroll
slow
fast
+/-
esc
set tempo
stop
Author
===========================================================
	Artist: HIM
	  Song: Wings of a Butterfly
	 Album: Dark Light
===========================================================

Tabbed: TheMutts @ Ultimate-Guitar.com
Email: fadetoblack726@yahoo.com

Tuning: Standard (to play intro it can be standard)

FULL SONG COMING SOON, HERE IS CORRECT INTRO

|--------------------------|-----------------------------------|
|---6----6----6--4h6p4-----|--4----4----4----4----4--2h4p2-----|
|-----------------------6--|--------------------------------4--|
|------8----8--------------|-----6----6----6----6--------------|
|--------------------------|-----------------------------------|
|--------------------------|-----------------------------------|
              
continued...  

|--------------------|
|--2----2----2<<<<<<<<<<
                

            
            
Suggest correction
Creating personal tab
Creating personal tab
You can edit any tab online and save it as your Personal.

You can edit, replace or remove any tab part or add personal notes – all changes will be seen only by you.

Personal tabs can be accessed anytime from any device, even offline.
Learn more »
comments
print report bad tab
8 comments total. Showing first comments.
0 reply
xxZeroxx 37 Feb 22, 2006 03:33 PM

Great tab man!thanx alot

0 reply
Killer band 10 Mar 21, 2006 12:22 PM

how do you do the 4h6p4?
|--------------------------|-----------------------------------|
|---6----6----6--4h6p4-----|--4----4----4----4----4--2h4p2-----|
|-----------------------6--|--------------------------------4--|
|------8----8--------------|-----6----6----6----6--------------|
|--------------------------|-----------------------------------|
|--------------------------|-----------------------------------|

0 reply
Killer band 10 Mar 21, 2006 12:22 PM

sorry but im new

guest
You may want to rate the tab now too:
select rating
Wanna post a correction for this tab? Suggest correction