Oops, an error
Loading. Please wait.
We have an official Wings Of A Butterfly tab made by UG professional guitarists. Check out the tab »
×
by HIM
3,100 views 21 this week
no commentswrite comment
1 2 3 4 5
1 last vote to show rating
add to favorites
×
Save as Personal and add changes to this tab that will be seen only by you. Learn more ›
×
You can save this tab as Personal to edit and correct it or add notes. All changes will be seen only by you. Learn more »
launch autoscroll
font size
0
reset
transpose
0
reset
simplify chords
display chords
guitar tuner
backing track
0:00
0:00
edit
Autoscroll
slow
fast
+/-
esc
set tempo
stop
Strumming Are these strumming patterns correct? Yes No
Chorus (adapted) 128 bpm
1
&
2
&
3
&
4
&
5
&
6
&
7
&
8
&
Listen
Verse riff (adapted) 128 bpm
1
&
2
&
3
&
4
&
5
&
6
&
7
&
8
&
Listen
transition from chorus to verse 128 bpm
1
&
2
&
3
&
4
&
5
&
6
&
7
&
8
&
Listen
INTRO RIFF

 c|-------------------------------|-------------------------|------------------------------|
 G|-------------------------------|-------------------------|------------------------------|
Eb|-14----14----14-12h14p12\10-12-|-------12----12----12----|-12----12----12-10h12p10\9-10-|
Bb|----12----12-------------------|----10----10----10----10-|----10----10------------------|
 F|-------------------------------|-------------------------|------------------------------|
 C|-------------------------------|-------------------------|------------------------------|
                   ---3---                                                   ---3---

  ________________________  ______________________
  1.                      ||2.
 c|-----------------------||-----------------------|
 G|-----------------------||-----------------------|
Eb|-------10----10---9--o-||-------10----10----9---|
Bb|---------------------o-||----------------10-----|
 F|----10----10-----------||----10----10-----------|
 C|-----------------------||-----------------------|


 c||---------------------------------|-------------------------|------------------------------|
 G||---------------------------------|-------------------------|------------------------------|
Eb||-o-14----14----14-12h14p12\10-12-|-------12----12----12----|-12----12----12-10h12p10\9-10-|
Bb||-o----12----12-------------------|----10----10----10----10-|----10----10------------------|
 F||---------------------------------|-------------------------|------------------------------|
 C||---------------------------------|-------------------------|------------------------------|
                      ---3---                                                   ---3---

  ___________________________  ______________________
  1.                         ||2.
 c|--------------------------||-----------------------|
 G|--------------------------||-----------------------|
Eb|-------10----10----9----o-||-----------------------|
Bb|----------------10---10-o-||-----------------------|
 F|----10----10--------------||-----------------------|
 C|--------------------------||-----------------------|

Ab  Ebm7 = Ab ( Gb Fm ) Ebm7


ORDER: I V1 C1 INT1 V2 C2 INT2 FC O


[INTRO]
Bbm Ab | | Ab Ebm7 | Ebm7   Absus4 Ab |
Bbm Ab | | Ab Ebm7 | Ebm7   Absus4 Ab |
Bbm Ab | | Ab Ebm7 | Ebm7   Absus4 Ab |
Bbm Ab | | Ab Ebm7 |                  |


[VERSE 1]
Bbm                  Ab
Heaven ablaze in our eyes
      Ab                Bbm
We're standing still in time
    Bbm                       Ab 
The blood on our hands is the wine
   Ab            Bbm   Ebm
We offer as sacrifice 


[CHORUS 1]
        Ab     Bbm            Ab
   Come on and show them your love 
Ab                        Ebm7
   Rip out the wings of a butterfly
   Ab       Bbm      Ab
   For your soul, my love
Ab                        Ebm7
   Rip out the wings of a butterfly
   Ab       Bbm
   For your soul


[INTERLUDE 1]
Bbm Ab | | Ab   Ebm7 | |


[VERSE 2]
     Bbm           Ab
This endless mercy mile 
      Ab               Bbm
We're crawling side by side
          Bbm              Ab 
With hell freezing over in our eyes 
     Ab               Bbm  Ebm
Gods kneel before our crime


[CHORUS 2]
        Ab     Bbm            Ab
   Come on and show them your love 
Ab                        Ebm7
   Rip out the wings of a butterfly
   Ab       Bbm      Ab
   For your soul, my love
Ab                        Ebm7
   Rip out the wings of a butterfly
   Ab       Bbm Ab
   For your soul
Ab                        Ebm7
  (Rip out the wings of a butterfly)
   Ab        Bbm Ab
   Don’t let go
Ab                        Ebm7
  (Rip out the wings of a butterfly)
   Ab       Bbm n.c.
   For your soul


[INTERLUDE 2]
Fm Eb | | Fm Eb | |
Fm Eb | | Fm Bb | |
Fm Eb | | Fm Eb | |
Fm Eb | | Fm Bb | | Bbm | Bbdim | Bbm


[FINAL CHORUS]
        Ab     Bbm            Ab
   Come on and show them your love 
Ab                        Ebm7
   Rip out the wings of a butterfly
   Ab       Bbm      Ab
   For your soul, my love
Ab                        Ebm7
   Rip out the wings of a butterfly
   Ab       Bbm Ab
   For your soul
Ab                        Ebm7
  (Rip out the wings of a butterfly)
   Ab        Bbm Ab
   Don’t let go
Ab                        Ebm7
  (Rip out the wings of a butterfly)
   Ab       Bbm
   For your soul


[OUTRO]
Bbm Ab | | Ab                       Ebm7 | Ebm7    Absus4 Ab |
            (Rip out the wings of a but  - terfly) don't  let
Bbm Ab | | Ab                       Ebm7 | Ebm7    Absus4 Ab | n.c.
            (Rip out the wings of a but  - terfly) For    your soul

            
            
Suggest correction
Creating personal tab
Creating personal tab
You can edit any tab online and save it as your Personal.

You can edit, replace or remove any tab part or add personal notes – all changes will be seen only by you.

Personal tabs can be accessed anytime from any device, even offline.
Learn more »
Give kudos to tab author, rate the tab!
1 2 3 4 5
comments
print report bad tab
guest
You may want to rate the tab now too:
select rating
Wanna post a correction for this tab? Suggest correction