Oops, an error
Loading. Please wait.

Better Than Me tab

version 3
version 3

Interactive

by Hinder
161,788 views 84 this week
48 commentsread comments
1 2 3 4 5
x 77
add to favorites
×
Save as Personal and add changes to this tab that will be seen only by you. Learn more ›
×
You can save this tab as Personal to edit and correct it or add notes. All changes will be seen only by you. Learn more »
launch autoscroll
font size
0
reset
how to read this tab
guitar tuner
edit
Autoscroll
slow
fast
+/-
esc
set tempo
stop
Author
Band       : Hinder
Song       : Better than me
Tabbed By  : Ruth Mae Quisayang
Written By : Brandon Philip Llapitan
Tuning     : Standard

Call or txt 09064855033 or 09163642069

The most accurate tab.. 100%!


[Intro/verse :]
e----------------------------------------------------------------|
b-----5---5-----5------5---5-----5------3---3---3--33/5(5)-------|
g-----------------------------------------------x—xx-------------|(4x)
d---7---------7------5---------5------3---------3--33/5----------|
a-5-----5---5------3-----3---3------1-----1---1-1--11/3----------|
E----------------------------------------------------------------|


[Pre-Chorus :]
e-------------|
b-------1-----|
g-7--3--0-----|
d-7--3--2-----|
a-5--1--3-----|
E-------------|


[Chorus :]
e-----------------------|
b-----------------------|
g-7--3--7--5--7--3--5---|
d-7--3--7--5--7--3--5---|
a-5--1--5--3--5--1--3---|
E-----------------------|

Repeat intro 2x


[Verse 2 :]
e----------------------------------------------|
b-------------------------3---3---3--33/5(5)---|
g-7-5-3-----------7-5-------------x--xx--------|
d-7-5-3-(3x)then--7-5---3---------3--33/5------|
a-5-3-1-----------5-3-1-----1---1-1--11/3------|
E----------------------------------------------|

Repeat Pre-chorus
Repeat Chorus


[Bridge :]
e-------------------------------|
b-------------------------------|
g----3-----5--------------------|
d-5--3--3--5-(2x)then-77777777--|
a-5--1--3--3----------77777777--|
E-3-----1-------------55555555--|

Repeat Chorus 2x

[Outro :]
e----------------|
b----------------|
g-7--3--5--------|
d-7--3--5—(4x)---|
a-5--1--3--------|
E----------------|

Listen to the song for the strumming..
Rock on..
kill hip-hop!!

            
            
Suggest correction
Creating personal tab
Creating personal tab
You can edit any tab online and save it as your Personal.

You can edit, replace or remove any tab part or add personal notes – all changes will be seen only by you.

Personal tabs can be accessed anytime from any device, even offline.
Learn more »
comments
print report bad tab
48 comments total. Showing first comments.
+4 reply
MinorNuisance 10 Sep 18, 2006 07:26 PM

Here's what I think is the actual pattern...
Intro

let ring---------------------| let ring--------------|
e|------------------------------------|-------------------------|
B|------5---5-----5-------5---5-------|-----3---3----3----1-3/5-|
G|------------------------------------|--------------3----3-3/--|
D|----3-------3-------(3)-------3---3-|--------------3----3-3---|
A|--5-----5-----5---3--3----3-----3---|-1-1---1---1--1----1-1---|
E|------------------------------------|-------------------------|

MinorNuisance

+2 reply
TRgtrANDvocals 228 Oct 03, 2006 02:57 PM

yea i think MinorNuisance is right..that sounds about right

+3 reply
SRVistheKING 30 Oct 09, 2006 01:53 PM

nice tab man

guest
You may want to rate the tab now too:
select rating
Wanna post a correction for this tab? Suggest correction