Oops, an error
Loading. Please wait.

Bliss Tab

version 1
version 1

Solo

Whole song

2,018 views 3 this week
3 commentsread comments
1 2 3 4 5
x 3
add to favorites
launch autoscroll
font size
0
reset
how to read this tab
guitar tuner
Autoscroll
slow
fast
+/-
esc
set tempo
stop
Help us to improve Ultimate-Guitar.com Take our survey!
×
Author
-------------------------------------------------------------------------------
                             Bliss - Hinder
-------------------------------------------------------------------------------
Tabbed by:Phillip
Email:Cheetaclawsfl@yahoo.com

Tuning:standard

I didnt see any tabs for the solo of this song so here you go.

Update: I fixed the problem of the notes on the A string instead of the D string,  A few 
and added where some Hammer-ons and pull-offs should be.

e|---------------------------------------------------------------------------|
B|---------------8---------------------------8-------------------------------|
G|------------------10-9h10p9-7----------------10-9--------------------------|
D|-7-10-10-7-10-----------------7-10-10-7-10-------------------10------------|
A|---------------------------------------------------------------------------|
E|---------------------------------------------------------------------------|
   x  x x                       x  x  x
e|-----------------------------------------8--|
B|--------------8-6-5h6-8-8-8-5-8-8-5-6-8-----|
G|--------------------------------------------|
D|-7-10-10-7-10-------------------------------|
A|--------------------------------------------|
E|--------------------------------------------|
   x  x x
This is the fast part
e|-8h10h12p10p8-10p8----8------------------------------------|
B|-------------------12---12p10p8h10-8-6-7-6-5-6-5-----------|
G|--------------------------------------------------7-5-7-7--|
D|-----------------------------------------------------------|
A|-----------------------------------------------------------|
E|-----------------------------------------------------------|

e|---------------------------------------------------------------------------|
B|---------------------------------------------------------------------------|
G|-5-7-7-5-------------------------------------------------------------------|
D|---------7-5-7-5h-7--------------------------------------------------------|
A|---------------------------------------------------------------------------|
E|---------------------------------------------------------------------------|

e|--------------------------------------------------------------------------------|
B|-11-10-11-10-11-10-11-10-12//-14//-15//-----------------------------------------|
G|--------------------------------------------------------------------------------|
D|--------------------------------------------------------------------------------|
A|--------------------------------------------------------------------------------|
E|--------------------------------------------------------------------------------|
E|--------------------------------------------------------------------------------|

and thats the solo. i separated it into parts, i hope you like it, and sorry if it is a
messy or incorrect.  Have fun!

| /  slide up
| \  slide down
| h  hammer-on
| p  pull-off
| ~  vibrato
| +  harmonic
| x  Mute note
===============================================================================
Suggest correction
Give kudos to tab author, rate the tab!
1 2 3 4 5
comments
print report bad tab
3 comments total.
+1 reply
Hinder11 170 Nov 19, 2007 12:46 AM

I screwed up when i put this in, the -7-10-10-7-10- should be on the D string.Sorry about that.

0 reply
Hinder11 170 Feb 10, 2008 07:19 PM

Does anyone know how to update tabs, I screwed up on a few notes.

0 reply
tboat 302 Aug 16, 2009 04:56 PM

u got way to many extra notes on the begining part
------------------------
--------------8---------
----------------10-9-7--
---7-10-10-10-----------
------------------------
------------------------

guest
You may want to rate the tab now too:
select rating
Wanna post a correction for this tab? Suggest correction