Oops, an error
Loading. Please wait.

Extreme Behavior album tab

by Hinder
5,165 views 6 this week
7 commentsread comments
1 2 3 4 5
x 9
add to favorites
×
Save as Personal and add changes to this tab that will be seen only by you. Learn more ›
×
You can save this tab as Personal to edit and correct it or add notes. All changes will be seen only by you. Learn more »
launch autoscroll
font size
0
reset
how to read this tab
guitar tuner
edit
Autoscroll
slow
fast
+/-
esc
set tempo
stop
Author
Difficulty
                             Hinder - Extreme behavior

Track 1 - Get Stoned

Drop D Tuning

Intro
Guitar 1
e|--------------------------------------------------|
B|-11----11----10----10----12----12----13----15-----|
G|----12----12----12----12----12----12----12----12--|x2
D|--------------------------------------------------|
A|--------------------------------------------------|
D|--------------------------------------------------|

e|----------------------------------------------|
B|-------------------------------10-11-10-------|
G|-12-10----10-12-10----12-10-------------12-10-|x2
D|-------12----------12-------12----------------|
A|----------------------------------------------|
D|----------------------------------------------|

Guitar 2
e|-X-X---------------------------------|
B|-X-X---------------------------------|
G|-X-X---------------------------------|
D|-X-X-5-5-5-5-8-8-8-8-3-3-3-3-1-1-1-1-|
A|-X-X-5-5-5-5-8-8-8-8-3-3-3-3-1-1-1-1-|
D|-X-X-5-5-5-5-8-8-8-8-3-3-3-3-1-1-1-1-|

e|------------------------------------|
B|------------------------------------|
G|------------------------------------|
D|-5-5-5-5-8-8-8-8-3-3-3-3-1-1-1-1-5~-|
A|-5-5-5-5-8-8-8-8-3-3-3-3-1-1-1-1-5~-|
D|-5-5-5-5-8-8-8-8-3-3-3-3-1-1-1-1-5~-|

Verse
e|---------------------------------|
B|---------------------------------|
G|---------------------------------|x3
D|-5-5-5-5-8-8-8-8-3-3-3-3-1-1-1-1-|
A|-5-5-5-5-8-8-8-8-3-3-3-3-1-1-1-1-|
D|-5-5-5-5-8-8-8-8-3-3-3-3-1-1-1-1-|


Pre chorus

e|----------------------------------------------------------------|
B|-11--11---10---10---12---12---13---15---11---11---10---10-------|
G|---12---12---12---12---12---12---12---12---12---12---12---12----|
D|-------------------------------------------------------------12-|
A|----------------------------------------------------------------|
D|----------------------------------------------------------------|

e|-------------------------------------------------------------|
B|-------------------------------------------------------------|
G|-------------------------------------------------------------|
D|-1-1-1-1-3-3-3-3-5-5-5-5-5-5-5-1-1-1-1-3-3-3-3-5-5-5-5-5-5-5-|
A|-1-1-1-1-3-3-3-3-5-5-5-5-5-5-5-1-1-1-1-3-3-3-3-5-5-5-5-5-5-5-|
D|-1-1-1-1-3-3-3-3-5-5-5-5-5-5-5-1-1-1-1-3-3-3-3-5-5-5-5-5-5-5-|
Chorus

e|-----------------------------------------------------------------|
B|-----------------------------------------------------------------|
G|-----------------------------------------------------------------|
D|-5-5-5-5-8-8-8-8-3-3-3-3-1-1-1-1-5-5-5-5-8-8-8-8-3-3-3-3-1-1-1-1-|
A|-5-5-5-5-8-8-8-8-3-3-3-3-1-1-1-1-5-5-5-5-8-8-8-8-3-3-3-3-1-1-1-1-|
D|-5-5-5-5-8-8-8-8-3-3-3-3-1-1-1-1-5-5-5-5-8-8-8-8-3-3-3-3-1-1-1-1-|

Then the end of chorus bit
Guitar 1
e|-------------13----------------------13----13-15----|
B|----11-10-11----11-10-11----11-10-11----11-------11-|
G|-12----------------------10-------------------------|
D|----------------------------------------------------|
A|----------------------------------------------------|
D|----------------------------------------------------|

Guitar 2
e|-----------------------------------------------------------------|
B|-----------------------------------------------------------------|
G|-----------------------------------------------------------------|
D|-1-1-1-1-3-3-3-3-5-5-5-5-5-5-5-1-1-1-1-3-3-3-3-5-5-5-5-5-5-5-5-5-|
A|-1-1-1-1-3-3-3-3-5-5-5-5-5-5-5-1-1-1-1-3-3-3-3-5-5-5-5-5-5-5-5-5-|
D|-1-1-1-1-3-3-3-3-5-5-5-5-5-5-5-1-1-1-1-3-3-3-3-5-5-5-5-5-5-5-5-5-|

Verse 2
e|---------------------------------|
B|---------------------------------|
G|---------------------------------|x3
D|-5-5-5-5-8-8-8-8-3-3-3-3-1-1-1-1-|
A|-5-5-5-5-8-8-8-8-3-3-3-3-1-1-1-1-|
D|-5-5-5-5-8-8-8-8-3-3-3-3-1-1-1-1-|

Pre Chorus
e|----------------------------------------------------------------|
B|-11--11---10---10---12---12---13---15---11---11---10---10-------|
G|---12---12---12---12---12---12---12---12---12---12---12---12----|
D|-------------------------------------------------------------12-|
A|----------------------------------------------------------------|
D|----------------------------------------------------------------|

e|-------------------------------------------------------------|
B|-------------------------------------------------------------|
G|-------------------------------------------------------------|
D|-1-1-1-1-3-3-3-3-5-5-5-5-5-5-5-1-1-1-1-3-3-3-3-5-5-5-5-5-5-5-|
A|-1-1-1-1-3-3-3-3-5-5-5-5-5-5-5-1-1-1-1-3-3-3-3-5-5-5-5-5-5-5-|
D|-1-1-1-1-3-3-3-3-5-5-5-5-5-5-5-1-1-1-1-3-3-3-3-5-5-5-5-5-5-5-|

Chorus

e|-----------------------------------------------------------------|
B|-----------------------------------------------------------------|
G|-----------------------------------------------------------------|
D|-5-5-5-5-8-8-8-8-3-3-3-3-1-1-1-1-5-5-5-5-8-8-8-8-3-3-3-3-1-1-1-1-|
A|-5-5-5-5-8-8-8-8-3-3-3-3-1-1-1-1-5-5-5-5-8-8-8-8-3-3-3-3-1-1-1-1-|
D|-5-5-5-5-8-8-8-8-3-3-3-3-1-1-1-1-5-5-5-5-8-8-8-8-3-3-3-3-1-1-1-1-|

Solo

Guitar 1
e|-------10----10/11-11-10-10-11-18--------10----10/11-11-10-10-11-10--|
B|----11----11--------------------------11----11-----------------------|
G|-10--------------------------------10--------------------------------|
D|---------------------------------------------------------------------|
A|---------------------------------------------------------------------|
D|---------------------------------------------------------------------|

e|-15-----13-----15p13--------------------------------------|
B|---------------------15p13--------------------------------|
G|---------------------------15-----17-17b-17b-17b-17b------|
D|-----------------------------------------------------20b~-|
A|----------------------------------------------------------|
D|----------------------------------------------------------|

Guitar 2
e|-----------------------------------------------------------------|
B|-----------------------------------------------------------------|
G|-----------------------------------------------------------------|
D|-5-5-5-5-8-8-8-8-3-3-3-3-1-1-1-1-5-5-5-5-8-8-8-8-3-3-3-3-1-1-1-1-|
A|-5-5-5-5-8-8-8-8-3-3-3-3-1-1-1-1-5-5-5-5-8-8-8-8-3-3-3-3-1-1-1-1-|
D|-5-5-5-5-8-8-8-8-3-3-3-3-1-1-1-1-5-5-5-5-8-8-8-8-3-3-3-3-1-1-1-1-|

Bridge
e|----------------------------------------------------------------------|
B|-11---11---10---10---12---12---13---14---11---11---10---10---12---12~-|
G|-12---12---12---12---12---12---12---12---12---12---12---12---12---12~-|
D|----0----0----0----0----0----0----0----0----0----0----0----0----0-----|
A|----------------------------------------------------------------------|
D|----------------------------------------------------------------------|

Chorus
e|-----------------------------------------------------------------|
B|-----------------------------------------------------------------|
G|-----------------------------------------------------------------|
D|-5-5-5-5-8-8-8-8-3-3-3-3-1-1-1-1-5-5-5-5-8-8-8-8-3-3-3-3-1-1-1-1-|
A|-5-5-5-5-8-8-8-8-3-3-3-3-1-1-1-1-5-5-5-5-8-8-8-8-3-3-3-3-1-1-1-1-|
D|-5-5-5-5-8-8-8-8-3-3-3-3-1-1-1-1-5-5-5-5-8-8-8-8-3-3-3-3-1-1-1-1-|

Then the end of chorus bit
Guitar 1
e|-------------13----------------------13----13-15----|
B|----11-10-11----11-10-11----11-10-11----11-------11-|
G|-12----------------------10-------------------------|
D|----------------------------------------------------|
A|----------------------------------------------------|
D|----------------------------------------------------|

Guitar 2
e|-----------------------------------------------------------------|
B|-----------------------------------------------------------------|
G|-----------------------------------------------------------------|
D|-1-1-1-1-3-3-3-3-5-5-5-5-5-5-5-1-1-1-1-3-3-3-3-5-5-5-5-5-5-5-5-5-|
A|-1-1-1-1-3-3-3-3-5-5-5-5-5-5-5-1-1-1-1-3-3-3-3-5-5-5-5-5-5-5-5-5-|
D|-1-1-1-1-3-3-3-3-5-5-5-5-5-5-5-1-1-1-1-3-3-3-3-5-5-5-5-5-5-5-5-5-|


Outro
Guitar 1
e|-----------6---------------6-----------------------------------|
B|---------------------------------------------------------------|
G|---7---7-8---8-7---7-8---8---8------7---7-8---8-7---7-8---8-7--|
D|-8---8-----------8-----8----------8---8-----8-----8-----8------|
A|-------------------------------10------------------------------| x3
D|---------------------------------------------------------------|

e|-15-14-15-14-15-14-15-|
B|----------------------|
g|----------------------|
D|----------------------|
A|----------------------|
D|----------------------|

e|---------------------------------------------------------------|
B|---------------------------------------------------------------|
G|---------------------------------------------------------------|
D|-1-1-1-1-3-3-3-3-5-5-5-5-5-5-5-1-1-1-1-3-3-3-3-5-5-5-5-5-5-5-5-|
A|-1-1-1-1-3-3-3-3-5-5-5-5-5-5-5-1-1-1-1-3-3-3-3-5-5-5-5-5-5-5-5-|
D|-1-1-1-1-3-3-3-3-5-5-5-5-5-5-5-1-1-1-1-3-3-3-3-5-5-5-5-5-5-5-5-|

e|--------------------------------------------|
B|--------------------------------------------|
G|--------------------------------------------|
D|-1-1-1-1-3-3-3-3-5-5-5-5-5-5-5-1-1-1-1-3-3~-|
A|-1-1-1-1-3-3-3-3-5-5-5-5-5-5-5-1-1-1-1-3-3~-|
D|-1-1-1-1-3-3-3-3-5-5-5-5-5-5-5-1-1-1-1-3-3~-|

The End
_____________________________________________________________________________
Track 2 - How Long

Standard Tuning

Intro
e|-----------------------------|
B|-----------------------------|
G|-7-7-5-5-5-3-3-3-3-5-5-5-7-7-|x3
D|-7-7-5-5-5-3-3-3-3-5-5-5-7-7-|
A|-5-5-3-3-3-1-1-1-1-3-3-3-5-5-|
E|-----------------------------|

Verse
e|-------------------------------------------------------|
B|-------------------------------------------------------|
G|-7-7-7-7-7-7-7---------------5-5-5-5-5-5---------------|x3
D|-7-7-7-7-7-7-7-3-3-3-3-3-3-3-5-5-5-5-5-5-5-5-5-5-5-5-5-|
A|-5-5-5-5-5-5-5-3-3-3-3-3-3-3-3-3-3-3-3-3-5-5-5-5-5-5-5-|
E|---------------1-1-1-1-1-1-1-------------3-3-3-3-3-3-3-|

e|-------------------------------------|
B|-------------------------------------|
G|-5-5-5-5-3-3-3-3-5-5-5-7-7-7-7-7-7-7-|
D|-5-5-5-5-3-3-3-3-5-5-5-7-7-7-7-7-7-7-|
A|-3-3-3-3-1-1-1-1-3-3-3-5-5-5-5-5-5-5-|
E|-------------------------------------|

Chorus
e|-----------------------------|
B|-----------------------------|
G|-7-7-5-5-5-3-3-3-3-5-5-5-7-7-|x3
D|-7-7-5-5-5-3-3-3-3-5-5-5-7-7-|
A|-5-5-3-3-3-1-1-1-1-3-3-3-5-5-|
E|-----------------------------|

Bridge
e|----------------------------|
B|----------------------------|
G|--------------3-3-/1\3/1\-3-|
D|-55\3/5-X-X-X-3-3-/1\3/1\-3-|
A|-55\3/5-X-X-X-1-1-/3\1/3\-1-|
E|-33\1/3-X-X-X---------------|

e|----------------------------|
B|----------------------------|
G|------------3-33-3-/1\3/1\3-|x3
D|-55\3/5-XXX-3-33-3-/1\3/1\3-|
A|-55\3/5-XXX-1-11-1-/3\1/3\1-|
E|-33\1/3-XXX-----------------|

The End
_____________________________________________________________________________
Track 3 - By The Way

Standard Tuning


Intro
Guitar 1
e|-------------------------|
B|-12-12-12-12-12-12-12-12-|
G|-------------------------|x2
D|-------------------------|
A|-------------------------|
E|-------------------------|

Guitar 2
   Am      G       F      Dsus2
e|---------3-3-3-3-1-1-1-1---------|
B|-1-1-1-1---------1-1-1-1-3-3-3-3-|
G|-2-2-2-2---------2-2-2-2-2-2-2-2-|
D|-2-2-2-2---------3-3-3-3---------|
A|---------2-2-2-2-----------------|
E|---------3-3-3-3-----------------|

Verse
   Am      G       Am      F       Am
e|---------3-3-3-3---------1-1-1-1---------|
B|-1-1-1-1---------1-1-1-1-1-1-1-1-1-1-1-1-|
G|-2-2-2-2---------2-2-2-2-2-2-2-2-2-2-2-2-|
D|-2-2-2-2---------2-2-2-2-3-3-3-3-2-2-2-2-|
A|---------2-2-2-2-------------------------|
E|---------3-3-3-3-------------------------|

   G       Am      F
e|-3-3-3-3---------1-1-1-1-|
B|---------1-1-1-1-1-1-1-1-|
G|---------2-2-2-2-2-2-2-2-|
D|---------2-2-2-2-3-3-3-3-|
A|-2-2-2-2-----------------|
E|-3-3-3-3-----------------|

   Am      G       Am      F       Am
e|---------3-3-3-3---------1-1-1-1---------|
B|-1-1-1-1---------1-1-1-1-1-1-1-1-1-1-1-1-|
G|-2-2-2-2---------2-2-2-2-2-2-2-2-2-2-2-2-|
D|-2-2-2-2---------2-2-2-2-3-3-3-3-2-2-2-2-|
A|---------2-2-2-2-------------------------|
E|---------3-3-3-3-------------------------|

   G       Am      F
e|-3-3-3-3---------1-1-1-1-|
B|---------1-1-1-1-1-1-1-1-|
G|---------2-2-2-2-2-2-2-2-|
D|---------2-2-2-2-3-3-3-3-|
A|-2-2-2-2-----------------|
E|-3-3-3-3-----------------|

   Am      G       F      Dsus2
e|---------3-3-3-3-1-1-1-1---------|
B|-1-1-1-1---------1-1-1-1-3-3-3-3-|
G|-2-2-2-2---------2-2-2-2-2-2-2-2-|
D|-2-2-2-2---------3-3-3-3---------|
A|---------2-2-2-2-----------------|
E|---------3-3-3-3-----------------|

   Am      G       F
e|---------3-3-3-3-1-1-1-1~-|
B|-1-1-1-1---------1-1-1-1~-|
G|-2-2-2-2---------2-2-2-2~-|
D|-2-2-2-2---------3-3-3-3~-|
A|---------2-2-2-2----------|
E|---------3-3-3-3----------|

Chorus
   C               F       G       C
e|-----------------1-1-1-1-3-3-3-3-----------------|
B|-1-1-1-1-1-1-1-1-1-1-1-1---------1-1-1-1-1-1-1-1-|
G|-----------------2-2-2-2-------------------------|
D|-2-2-2-2-2-2-2-2-3-3-3-3---------2-2-2-2-2-2-2-2-|
A|-3-3-3-3-3-3-3-3---------2-2-2-2-3-3-3-3-3-3-3-3-|
E|-------------------------3-3-3-3-----------------|

   F       Dsus2  A        F
e|-1-1-1-1-----------------1-1-1-1-|
B|-1-1-1-1-3-3-3-3-2-2-2-2-1-1-1-1-|
G|-2-2-2-2-2-2-2-2-2-2-2-2-2-2-2-2-|
D|-3-3-3-3---------2-2-2-2-3-3-3-3-|
A|---------------------------------|
E|---------------------------------|

Then the intro again 2x

Verse
   Am      G       Am      F       Am
e|---------3-3-3-3---------1-1-1-1---------|
B|-1-1-1-1---------1-1-1-1-1-1-1-1-1-1-1-1-|
G|-2-2-2-2---------2-2-2-2-2-2-2-2-2-2-2-2-|
D|-2-2-2-2---------2-2-2-2-3-3-3-3-2-2-2-2-|
A|---------2-2-2-2-------------------------|
E|---------3-3-3-3-------------------------|

   G       Am      F
e|-3-3-3-3---------1-1-1-1-|
B|---------1-1-1-1-1-1-1-1-|
G|---------2-2-2-2-2-2-2-2-|
D|---------2-2-2-2-3-3-3-3-|
A|-2-2-2-2-----------------|
E|-3-3-3-3-----------------|

   Am      G       F      Dsus2
e|---------3-3-3-3-1-1-1-1---------|
B|-1-1-1-1---------1-1-1-1-3-3-3-3-|
G|-2-2-2-2---------2-2-2-2-2-2-2-2-|
D|-2-2-2-2---------3-3-3-3---------|
A|---------2-2-2-2-----------------|
E|---------3-3-3-3-----------------|

   Am      G       F
e|---------3-3-3-3-1-1-1-1~-|
B|-1-1-1-1---------1-1-1-1~-|
G|-2-2-2-2---------2-2-2-2~-|
D|-2-2-2-2---------3-3-3-3~-|
A|---------2-2-2-2----------|
E|---------3-3-3-3----------|

Then Chorus again

Bridge
   F       C       G       F       Am      G       Am      F
e|-1-1-1-1---------3-3-3-3-1-1-1-1---------3-3-3-3---------1-1-1-1-|
B|-1-1-1-1-1-1-1-1---------1-1-1-1-1-1-1-1---------1-1-1-1-1-1-1-1-|
G|-2-2-2-2-----------------2-2-2-2-2-2-2-2---------2-2-2-2-2-2-2-2-|
D|-3-3-3-3-2-2-2-2---------3-3-3-3-2-2-2-2---------2-2-2-2-3-3-3-3-|
A|---------3-3-3-3-2-2-2-2-----------------2-2-2-2-----------------|
E|-----------------3-3-3-3-----------------3-3-3-3-----------------|

Chorus/Outro

   C               F       G       C
e|-----------------1-1-1-1-3-3-3-3-----------------|
B|-1-1-1-1-1-1-1-1-1-1-1-1---------1-1-1-1-1-1-1-1-|
G|-----------------2-2-2-2-------------------------|
D|-2-2-2-2-2-2-2-2-3-3-3-3---------2-2-2-2-2-2-2-2-|
A|-3-3-3-3-3-3-3-3---------2-2-2-2-3-3-3-3-3-3-3-3-|
E|-------------------------3-3-3-3-----------------|

   C               F       G       C
e|-----------------1-1-1-1-3-3-3-3-----------------|
B|-1-1-1-1-1-1-1-1-1-1-1-1---------1-1-1-1-1-1-1-1-|
G|-----------------2-2-2-2-------------------------|
D|-2-2-2-2-2-2-2-2-3-3-3-3---------2-2-2-2-2-2-2-2-|
A|-3-3-3-3-3-3-3-3---------2-2-2-2-3-3-3-3-3-3-3-3-|
E|-------------------------3-3-3-3-----------------|

   F       G       C
e|-1-1-1-1-3-3-3-3-----------------|
B|-1-1-1-1---------1-1-1-1-1-1-1-1-|
G|-2-2-2-2-------------------------|
D|-3-3-3-3---------2-2-2-2-2-2-2-2-|
A|---------2-2-2-2-3-3-3-3-3-3-3-3-|
E|---------3-3-3-3-----------------|

   F       D   A   F
e|-1-1-1-1---------1-1-1-1-----------------|
B|-1-1-1-1-3-3-2-2-1-1-1-1-----------------|
G|-2-2-2-2-2-2-2-2-2-2-2-2-----------------|
D|-3-3-3-3-----2-2-3-3-3-3-----------------|
A|-----------------------------------------|
E|-----------------------------------------|

   Am      G       Am      F
e|---------3-3-3-3---------1~-|
B|-1-1-1-1---------1-1-1-1-1~-|
G|-2-2-2-2---------2-2-2-2-2~-|
D|-2-2-2-2---------2-2-2-2-3~-|
A|---------2-2-2-2------------|
E|---------3-3-3-3------------|

The End
_____________________________________________________________________________
Track 4 - Nothin Good About Goodbye

Intro
e|-------------------------------------|
B|-------------------------------------|
G|-7-7-7-7--5-5-5-5--3-3-3-3-----------|x2
D|-7-7-7-7--5-5-5-5--3-3-3-3--5-5-5-5--|
A|-5-5-5-5--3-3-3-3--1-1-1-1--5-5-5-5--|
E|----------------------------3-3-3-3--|

Pre Chorus
e|-------------------------------------------------|
B|-------------------------------------------------|
G|-3-3-3-3--5-5--7-7--3-3-3-3--5-5-7-7-------------|
D|-3-3-3-3--5-5--7-7--3-3-3-3--5-5-7-7--5-5-5-5-7~-|
A|-1-1-1-1--3-3--5-5--1-1-1-1--3-3-5-5--5-5-5-5-7~-|
E|--------------------------------------3-3-3-3-5~-|

Chorus

e|---------------------------------|
B|---------------------------------|
G|-7-7-7-7-3-3-3-3-----------------|
D|-7-7-7-7-3-3-3-3-5-5-5-5-7-7-7-7-|
A|-5-5-5-5-1-1-1-1-5-5-5-5-7-7-7-7-|
E|-----------------3-3-3-3-5-5-5-5-|

e|------------------------------------------------------|
B|------------------------------------------------------|
G|-3-3-3-3-----------5-5-5-5--3-3-3-3-------------------|
D|-3-3-3-3--3-3-3-3--5-5-5-5--3-3-3-3--3-3-3-3--7-7-7-7-|
A|-1-1-1-1--3-3-3-3--3-3-3-3--1-1-1-1--3-3-3-3--7-7-7-7-|
E|----------1-1-1-1--------------------1-1-1-1--5-5-5-5-|

Verse

Pre Chorus

Chorus

e|---------------------------------|
B|---------------------------------|
G|-7-7-7-7-3-3-3-3-----------------|x2
D|-7-7-7-7-3-3-3-3-5-5-5-5-7-7-7-7-|
A|-5-5-5-5-1-1-1-1-5-5-5-5-7-7-7-7-|
E|-----------------3-3-3-3-5-5-5-5-|

e|------------------------------------------------------|
B|------------------------------------------------------|
G|-3-3-3-3-----------5-5-5-5--3-3-3-3-------------------|
D|-3-3-3-3--3-3-3-3--5-5-5-5--3-3-3-3--3-3-3-3--7-7-7-7-|
A|-1-1-1-1--3-3-3-3--3-3-3-3--1-1-1-1--3-3-3-3--7-7-7-7-|
E|----------1-1-1-1--------------------1-1-1-1--5-5-5-5-|

Bridge

e|---------------------------------|
B|---------------------------------|
G|-----3---------------5-------5---|x3
D|---3---3-----3-----5---5---5---5-|
A|-1---------3---3-3-------3-------|
E|---------1-----------------------|

e|-------------------------|
B|-------------------------|
G|-----3-------------------|
D|---3---3-----3---7-7-7-7-|
A|-1---------3---3-7-7-7-7-|
E|---------1-------5-5-5-5-|

Chorus/Outro

e|---------------------------------|
B|---------------------------------|
G|-7-7-7-7-3-3-3-3-----------------|x2
D|-7-7-7-7-3-3-3-3-5-5-5-5-7-7-7-7-|
A|-5-5-5-5-1-1-1-1-5-5-5-5-7-7-7-7-|
E|-----------------3-3-3-3-5-5-5-5-|

e|------------------------------------------------------|
B|------------------------------------------------------|
G|-3-3-3-3-----------5-5-5-5--3-3-3-3-----------5-5-5-5-|x5
D|-3-3-3-3--3-3-3-3--5-5-5-5--3-3-3-3--3-3-3-3--5-5-5-5-|
A|-1-1-1-1--3-3-3-3--3-3-3-3--1-1-1-1--3-3-3-3--3-3-3-3-|
E|----------1-1-1-1--------------------1-1-1-1----------|
(it fades out)

The End
_____________________________________________________________________________
Track 5 - Bliss (I dont wanna know)

Intro
e|---------------------------------|
B|---------------------------------|
G|---------5-5-5-5-----------------|
D|-7-7-7-7-5-5-5-5-5-5-5-5-3~------|
A|-7-7-7-7-3-3-3-3-5-5-5-5-3~------|
E|-5-5-5-5---------3-3-3-3-1~------|


Verse 1
e|---------------------------------|
B|---------------------------------|
G|---------5-5-5-5-----------------|X3
D|-7-7-7-7-5-5-5-5-5-5-5-5-3-3-3-3-|
A|-7-7-7-7-3-3-3-3-5-5-5-5-3-3-3-3-|
E|-5-5-5-5---------3-3-3-3-1-1-1-1-|

e|--------------------------------------|
B|--------------------------------------|
G|---------5-5-5-5----------------------|
D|-7-7-7-7-5-5-5-5-5-5-5-5-3~-5-5-5-5-5-|
A|-7-7-7-7-3-3-3-3-5-5-5-5-3~-5-5-5-5-5-|
E|-5-5-5-5---------3-3-3-3-1~-3-3-3-3-3-|


Chorus
e|---------------------------------|
B|---------------------------------|
G|---------5-5-5-5-----------------|X2
D|-3-3-3-3-5-5-5-5-5-5-5-5-5-5-5-5-|
A|-3-3-3-3-3-3-3-3-5-5-5-5-5-5-5-5-|
E|-1-1-1-1---------3-3-3-3-3-3-3-3-|

e|---------------------------------|
B|---------------------------------|
G|---------5-5-5-5---------7-7-7-7-|
D|-7-7-7-7-5-5-5-5-5-5-5-5-7-7-7-7-|
A|-7-7-7-7-3-3-3-3-5-5-5-5-5-5-5-5-|
E|-5-5-5-5---------3-3-3-3---------|

e|---------------------------------|
B|---------------------------------|
G|---------5-5-5-5-----------------|
D|-3-3-3-3-5-5-5-5-5-5-5-5-5-5-5-5-|
A|-3-3-3-3-3-3-3-3-5-5-5-5-5-5-5-5-|
E|-1-1-1-1---------3-3-3-3-3-3-3-3-|

e|---------------------------------|
B|---------------------------------|
G|---------5-5-5-5-----------------|
D|-7-7-7-7-5-5-5-5-5-5-5-5-3-3-3-3-|
A|-7-7-7-7-3-3-3-3-5-5-5-5-3-3-3-3-|
E|-5-5-5-5---------3-3-3-3-1-1-1-1-|

e|---------------------------------|
B|---------------------------------|
G|---------5-5-5-5-----------------|
D|-7-7-7-7-5-5-5-5-5-5-5-5-3~------|
A|-7-7-7-7-3-3-3-3-5-5-5-5-3~------|
E|-5-5-5-5---------3-3-3-3-1~------|


Verse 2
e|---------------------------------|
B|---------------------------------|
G|---------5-5-5-5-----------------|X3
D|-7-7-7-7-5-5-5-5-5-5-5-5-3-3-3-3-|
A|-7-7-7-7-3-3-3-3-5-5-5-5-3-3-3-3-|
E|-5-5-5-5---------3-3-3-3-1-1-1-1-|

e|--------------------------------------|
B|--------------------------------------|
G|---------5-5-5-5----------------------|
D|-7-7-7-7-5-5-5-5-5-5-5-5-3~-5-5-5-5-5-|
A|-7-7-7-7-3-3-3-3-5-5-5-5-3~-5-5-5-5-5-|
E|-5-5-5-5---------3-3-3-3-1~-3-3-3-3-3-|


Chorus
e|---------------------------------|
B|---------------------------------|
G|---------5-5-5-5-----------------|X2
D|-3-3-3-3-5-5-5-5-5-5-5-5-5-5-5-5-|
A|-3-3-3-3-3-3-3-3-5-5-5-5-5-5-5-5-|
E|-1-1-1-1---------3-3-3-3-3-3-3-3-|

e|---------------------------------|
B|---------------------------------|
G|---------5-5-5-5---------7-7-7-7-|
D|-7-7-7-7-5-5-5-5-5-5-5-5-7-7-7-7-|
A|-7-7-7-7-3-3-3-3-5-5-5-5-5-5-5-5-|
E|-5-5-5-5---------3-3-3-3---------|

e|---------------------------------|
B|---------------------------------|
G|---------5-5-5-5-----------------|
D|-3-3-3-3-5-5-5-5-5-5-5-5-5-5-5-5-|
A|-3-3-3-3-3-3-3-3-5-5-5-5-5-5-5-5-|
E|-1-1-1-1---------3-3-3-3-3-3-3-3-|


Solo (Dont know it so i will just put the rythem part to it)
e|---------------------------------|
B|---------------------------------|
G|---------5-5-5-5---------5-5-5-5-|
D|-3-3-3-3-5-5-5-5-7-7-7-7-5-5-5-5-|
A|-3-3-3-3-3-3-3-3-7-7-7-7-3-3-3-3-|
E|-1-1-1-1---------5-5-5-5---------|

e|---------------------------------|
B|---------------------------------|
G|---------5-5-5-5---------5-5-5-5-|
D|-3-3-3-3-5-5-5-5-5-5-5-5-5-5-5-5-|
A|-3-3-3-3-3-3-3-3-5-5-5-5-3-3-3-3-|
E|-1-1-1-1---------3-3-3-3---------|

e|---------------------------------|
B|---------------------------------|
G|---------5-5-5-5---------5-5-5-5-|
D|-3-3-3-3-5-5-5-5-7-7-7-7-5-5-5-5-|
A|-3-3-3-3-3-3-3-3-7-7-7-7-3-3-3-3-|
E|-1-1-1-1---------5-5-5-5---------|

e|---------------------------------|
B|---------------------------------|
G|---------------------------------|
D|-3-3-3-3-3-3-3-3-5-5-5-5-5-5-5-5-|
A|-3-3-3-3-3-3-3-3-5-5-5-5-5-5-5-5-|
E|-1-1-1-1-1-1-1-1-3-3-3-3-3-3-3-3-|


Outro
e|-------------------------------------------------|
B|-------------------------------------------------|
G|-13-13-13-13-------------15-15-15-15-15-15-15-15-|X6
D|-13-13-13-13-13-13-13-13-15-15-15-15-15-15-15-15-|
A|-11-11-11-11-13-13-13-13-13-13-13-13-13-13-13-13-|
E|-------------11-11-11-11-------------------------|

e|-------------------------------------------------|
B|-------------------------------------------------|
G|-------------------------15-15-15-15-10-10-10-10-|
D|-10-10-10-10-13-13-13-13-15-15-15-15-10-10-10-10-|
A|-10-10-10-10-13-13-13-13-13-13-13-13-8--8--8--8--|
E|-8--8--8--8--11-11-11-11-------------------------|

e|-------------------------------------------------|
B|-------------------------------------------------|
G|-13-13-13-13-------------15-15-15-15-15-15-15-15-|
D|-13-13-13-13-13-13-13-13-15-15-15-15-15-15-15-15-|
A|-11-11-11-11-13-13-13-13-13-13-13-13-13-13-13-13-|
E|-------------11-11-11-11-------------------------|

e|---------------------------------|
B|---------------------------------|
G|-5-5-5-5-5-5-5-5-----------------|
D|-5-5-5-5-5-5-5-5-3-3-3-3-3-3-3-3-|
A|-3-3-3-3-3-3-3-3-3-3-3-3-3-3-3-3-|
E|-----------------1-1-1-1-1-1-1-1-|

e|---------------------------------|
B|---------------------------------|
G|-5-5-5-5-5-5-5-5-----------------|
D|-5-5-5-5-5-5-5-5-3-3-3-3~--------|
A|-3-3-3-3-3-3-3-3-3-3-3-3~--------|
E|-----------------1-1-1-1~--------|

The End
_____________________________________________________________________________
Track 6 - Better Than Me (My Personal fav)

Intro and Verse
e|------------------------------------------------------|
B|-----5---5-----5------5---5-----5------3---3---3--3-3-|
G|------------------------------------------------------|X4
D|---7---------7------5---------5------3---------3--3-3-|
A|-5-----5---5------3-----3---3------1-----1---1-1--1-1-|
E|------------------------------------------------------|

Pre Chorus
e|-----------------------------------|
B|-----------------------------------|
G|-7-7-7-7--3-3-3-3--5-5-5-5-5-5-5-5-|X2
D|-7-7-7-7--3-3-3-3--5-5-5-5-5-5-5-5-|
A|-5-5-5-5--1-1-1-1--3-3-3-3-3-3-3-3-|
E|-----------------------------------|


Chorus
e|----------------------------------------------------------|
B|----------------------------------------------------------|
G|-7-7-7-7--3-3-3-3--7-7-7-7--5-5-5-5--7-7-7-7--3-3-3-3--5~-|
D|-7-7-7-7--3-3-3-3--7-7-7-7--5-5-5-5--7-7-7-7--3-3-3-3--5~-|
A|-5-5-5-5--1-1-1-1--5-5-5-5--3-3-3-3--5-5-5-5--1-1-1-1--3~-|
E|----------------------------------------------------------|

Intro X2

Verse
e|-------------------------|
B|-------------------------|
G|-7-7-7-7-5-5-5-5-3-3-3-3-|X3
D|-7-7-7-7-5-5-5-5-3-3-3-3-|
A|-5-5-5-5-3-3-3-3-1-1-1-1-|
E|-------------------------|

e|--------------------------------------|
B|---------------------3---3----3-------|
G|7-7-7-7-5-5-5-5-----------------3-3-3-|
D|7-7-7-7-5-5-5-5---3---------3---3-3-3-|
A|5-5-5-5-3-3-3-3-1-----1---1-----1-1-1-|
E|--------------------------------------|

Pre chorus

Chorus

e|-------------------------------------------------------------------------|
B|-------------------------------------------------------------------------|
G|-7-7-7-7--3-3-3-3--7-7-7-7--5-5-5-5--7-7-7-7--3-3-3-3--5-3-3-3-3-3-3-3-3-|
D|-7-7-7-7--3-3-3-3--7-7-7-7--5-5-5-5--7-7-7-7--3-3-3-3--5-3-3-3-3-3-3-3-3-|
A|-5-5-5-5--1-1-1-1--5-5-5-5--3-3-3-3--5-5-5-5--1-1-1-1--3-3-3-3-3-3-3-3-3-|
E|-------------------------------------------------------------------------|

Bridge
e|-----------------------------------------------------------------|
B|-----------------------------------------------------------------|
G|-----------------3-3-3-3-3-3-3-3-----------------5-5-5-5-5-5-5-5-|X2
D|-5-5-5-5-5-5-5-5-3-3-3-3-3-3-3-3-3-3-3-3-3-3-3-3-5-5-5-5-5-5-5-5-|
A|-5-5-5-5-5-5-5-5-1-1-1-1-1-1-1-1-3-3-3-3-3-3-3-3-3-3-3-3-3-3-3-3-|
E|-3-3-3-3-3-3-3-3-----------------1-1-1-1-1-1-1-1-----------------|

e|-----------|
B|-----------|
G|-----------|
D|-7-7-7-7-7-|
A|-7-7-7-7-7-|
E|-5-5-5-5-5-|

Chorus x2

Outro
e|---------------------------------|
B|---------------------------------|
G|-7-7-7-7-3-3-3-3-5-5-5-5-5-5-5-5-|x3
D|-7-7-7-7-3-3-3-3-5-5-5-5-5-5-5-5-|
A|-5-5-5-5-1-1-1-1-3-3-3-3-3-3-3-3-|
E|---------------------------------|

e|--------------------|
B|--------------------|
G|-7-7-7-7-3-3-3-5-5~-|
D|-7-7-7-7-3-3-3-5-5~-|
A|-5-5-5-5-1-1-1-3-3~-|
E|--------------------|

The End
_____________________________________________________________________________
Track 7 -Room 21

Intro
e|-x-x------------------------------------------|
B|-x-x------------------------------------------|
G|-x-x-3-3-----5-5-5-5-3----3-3-----5-5-5-5-3---|
D|-x-x-3-3-3-5-5-5-5-5-3-3--3-3-3-5-5-5-5-5-3-3-|
A|-x-x-1-1-3-5-3-3-3-3-1-3--1-1-3-5-3-3-3-3-1-3-|
E|-x-x-----1-3-----------1------1-3-----------1-|

e|------------------------------------------|
B|------------------------------------------|
G|-3-3-----5-5-5-5-3----3-3-----5-5-5-5-3---|
D|-3-3-3-5-5-5-5-5-3-3--3-3-3-5-5-5-5-5-3-3-|
A|-1-1-3-5-3-3-3-3-1-3--1-1-3-5-3-3-3-3-1-3-|
E|-----1-3-----------1------1-3-----------1-|


Verse 1
e|---------------------------------|---------------------------------|
B|---------------------------------|---------------------------------|
G|---------5-5-5-5-3-3-3-3---------|---------5-5-5-5---------5-5-5-5-|
D|-5-5-5-5-5-5-5-5-3-3-3-3-3-3-3-3-|-5-5-5-5-5-5-5-5-5-5-5-5-5-5-5-5-|
A|-5-5-5-5-3-3-3-3-1-1-1-1-3-3-3-3-|-5-5-5-5-3-3-3-3-5-5-5-5-3-3-3-3-|
E|-3-3-3-3-----------------1-1-1-1-|-3-3-3-3---------3-3-3-3---------|

e|---------------------------------|
B|---------------------------------|
G|-3-3-3-3-5-5-5-5-3-3-3-3-5-5-5-5-|
D|-3-3-3-3-5-5-5-5-3-3-3-3-5-5-5-5-|
A|-1-1-1-1-3-3-3-3-1-1-1-1-3-3-3-3-|
E|---------------------------------|


Chorus
e|------------------------------------------|
B|------------------------------------------|
G|-3-3-----5-5-5-5-3----3-3-----5-5-5-5-3---|
D|-3-3-3-5-5-5-5-5-3-3--3-3-3-5-5-5-5-5-3-3-|
A|-1-1-3-5-3-3-3-3-1-3--1-1-3-5-3-3-3-3-1-3-|
E|-----1-3-----------1------1-3-----------1-|

e|-----------------|
B|-----------------|
G|-3-3-3-3-5-5-5-5-|
D|-3-3-3-3-5-5-5-5-|
A|-1-1-1-1-3-3-3-3-|
E|-----------------|

e|---------------------------------------------------------------|
B|---------------------------------------------------------------|
G|-3-3-----5-5-5-5-3----3-3-----5-5-5-5-3----3-3-----5-5-5-5-3---|
D|-3-3-3-5-5-5-5-5-3-3--3-3-3-5-5-5-5-5-3-3--3-3-3-5-5-5-5-5-3-3-|
A|-1-1-3-5-3-3-3-3-1-3--1-1-3-5-3-3-3-3-1-3--1-1-3-5-3-3-3-3-1-3-|
E|-----1-3-----------1------1-3-----------1-----1-3------------1-|

e|-----------------|---------------------|
B|-----------------|---------------------|
G|-3-3-3-3-5-5-5-5-|-3-3-----5-5-5-5-3---|
D|-3-3-3-3-5-5-5-5-|-3-3-3-5-5-5-5-5-3-3-|
A|-1-1-1-1-3-3-3-3-|-1-1-3-5-3-3-3-3-1-3-|
E|-----------------|-----1-3-----------1-|


Verse 2
e|---------------------------------|---------------------------------|
B|---------------------------------|---------------------------------|
G|---------5-5-5-5-3-3-3-3---------|---------5-5-5-5---------5-5-5-5-|
D|-5-5-5-5-5-5-5-5-3-3-3-3-3-3-3-3-|-5-5-5-5-5-5-5-5-5-5-5-5-5-5-5-5-|
A|-5-5-5-5-3-3-3-3-1-1-1-1-3-3-3-3-|-5-5-5-5-3-3-3-3-5-5-5-5-3-3-3-3-|
E|-3-3-3-3-----------------1-1-1-1-|-3-3-3-3---------3-3-3-3---------|

e|---------------------------------|
B|---------------------------------|
G|-3-3-3-3-5-5-5-5-3-3-3-3-5-5-5-5-|
D|-3-3-3-3-5-5-5-5-3-3-3-3-5-5-5-5-|
A|-1-1-1-1-3-3-3-3-1-1-1-1-3-3-3-3-|
E|---------------------------------|


Chorus
e|------------------------------------------|
B|------------------------------------------|
G|-3-3-----5-5-5-5-3----3-3-----5-5-5-5-3---|
D|-3-3-3-5-5-5-5-5-3-3--3-3-3-5-5-5-5-5-3-3-|
A|-1-1-3-5-3-3-3-3-1-3--1-1-3-5-3-3-3-3-1-3-|
E|-----1-3-----------1------1-3-----------1-|

e|-----------------|
B|-----------------|
G|-3-3-3-3-5-5-5-5-|
D|-3-3-3-3-5-5-5-5-|
A|-1-1-1-1-3-3-3-3-|
E|-----------------|

e|---------------------------------------------------------------|
B|---------------------------------------------------------------|
G|-3-3-----5-5-5-5-3----3-3-----5-5-5-5-3----3-3-----5-5-5-5-3---|
D|-3-3-3-5-5-5-5-5-3-3--3-3-3-5-5-5-5-5-3-3--3-3-3-5-5-5-5-5-3-3-|
A|-1-1-3-5-3-3-3-3-1-3--1-1-3-5-3-3-3-3-1-3--1-1-3-5-3-3-3-3-1-3-|
E|-----1-3-----------1------1-3-----------1-----1-3------------1-|

e|-----------------|
B|-----------------|
G|-3-3-3-3-5-5-5-5-|
D|-3-3-3-3-5-5-5-5-|
A|-1-1-1-1-3-3-3-3-|
E|-----------------|

Solo (dont kno so ill just put the rythem)
e|------------------------------------------|
B|------------------------------------------|
G|-3-3-----5-5-5-5-3----3-3-----5-5-5-5-3---|
D|-3-3-3-5-5-5-5-5-3-3--3-3-3-5-5-5-5-5-3-3-|
A|-1-1-3-5-3-3-3-3-1-3--1-1-3-5-3-3-3-3-1-3-|
E|-----1-3-----------1------1-3-----------1-|

e|------------------------------------------|
B|------------------------------------------|
G|-3-3-----5-5-5-5-3----3-3-----5-5-5-5-3---|
D|-3-3-3-5-5-5-5-5-3-3--3-3-3-5-5-5-5-5-3-3-|
A|-1-1-3-5-3-3-3-3-1-3--1-1-3-5-3-3-3-3-1-3-|
E|-----1-3-----------1------1-3-----------1-|


Chorus and Outro
e|------------------------------------------|
B|------------------------------------------|
G|-3-3-----5-5-5-5-3----3-3-----5-5-5-5-3---|
D|-3-3-3-5-5-5-5-5-3-3--3-3-3-5-5-5-5-5-3-3-|
A|-1-1-3-5-3-3-3-3-1-3--1-1-3-5-3-3-3-3-1-3-|
E|-----1-3-----------1------1-3-----------1-|

e|-----------------|
B|-----------------|
G|-3-3-3-3-5-5-5-5-|
D|-3-3-3-3-5-5-5-5-|
A|-1-1-1-1-3-3-3-3-|
E|-----------------|

e|---------------------------------------------------------------|
B|---------------------------------------------------------------|
G|-3-3-----5-5-5-5-3----3-3-----5-5-5-5-3----3-3-----5-5-5-5-3---|
D|-3-3-3-5-5-5-5-5-3-3--3-3-3-5-5-5-5-5-3-3--3-3-3-5-5-5-5-5-3-3-|
A|-1-1-3-5-3-3-3-3-1-3--1-1-3-5-3-3-3-3-1-3--1-1-3-5-3-3-3-3-1-3-|
E|-----1-3-----------1------1-3-----------1-----1-3------------1-|

e|-----------------|
B|-----------------|
G|-3-3-3-3-5-5-5-5-|
D|-3-3-3-3-5-5-5-5-|
A|-1-1-1-1-3-3-3-3-|
E|-----------------|

e|---------------------------------------------------------------|
B|---------------------------------------------------------------|
G|-3-3-----5-5-5-5-3----3-3-----5-5-5-5-3----3-3-----5-5-5-5-3---|
D|-3-3-3-5-5-5-5-5-3-3--3-3-3-5-5-5-5-5-3-3--3-3-3-5-5-5-5-5-3-3-|
A|-1-1-3-5-3-3-3-3-1-3--1-1-3-5-3-3-3-3-1-3--1-1-3-5-3-3-3-3-1-3-|
E|-----1-3-----------1------1-3-----------1-----1-3------------1-|

e|---------------------------------------------------------------|
B|---------------------------------------------------------------|
G|-3-3-----5-5-5-5-3----3-3-----5-5-5-5-3----3-3-----5-5-5-5-3---|
D|-3-3-3-5-5-5-5-5-3-3--3-3-3-5-5-5-5-5-3-3--3-3-3-5-5-5-5-5-3-3-|
A|-1-1-3-5-3-3-3-3-1-3--1-1-3-5-3-3-3-3-1-3--1-1-3-5-3-3-3-3-1-3-|
E|-----1-3-----------1------1-3-----------1-----1-3------------1-|

e|----------------------------------|
B|----------------------------------|
G|-5-5-5-5-5-5-5-5~-------------5-5-|
D|-5-5-5-5-5-5-5-5~-------------5-5-|
A|-3-3-3-3-3-3-3-3~-------------3-3-|
E|----------------------------------|

The End
_____________________________________________________________________________
Track 8 - Lips of an angel

Drop D Tuning


Intro/Verse
e|-----------------------------------------------------|
B|-----3---------------------------------------3-------|
G|-2-2---2---2--4---4-------------7----------2---2---2-|x4
D|-2-------2----4-4---4---4---7-7---7---7--0-------0---|
A|-0------------2-------2-----5-------5----0-----------|
D|----------------------------5------------0-----------|

e|-------------------------------------------|
B|-----3-------------------------------------|
G|-2-2---2---2--4---4------------------------|
D|-2-------2----4-4---4---4--7-7-7-7-7-7-7-7-|
A|-0------------2-------2----5-5-5-5-5-5-5-5-|
D|---------------------------5-5-5-5-5-5-5-5-|

Pre Chorus
e|--------------------------------------------|
B|-3-3-----------------3-3--------------------|
G|-2-2--2-2--4-4--7-7--2-2--2-2--4-4--7-7-7-7-|
D|-0-0--2-2--4-4--7-7--0-0--2-2--4-4--7-7-7-7-|
A|-0-0--0-0--2-2--5-5--0-0--0-0--2-2--5-5-5-5-|
D|-0-0------------5-5--0-0------------5-5-5-5-|

Chorus
e|------------------------------------------------|
B|-3-3-------------------3-3----------------------|
G|-2-2--4-4--12-12--7-7--2-2--4-4--12-12--7-7-7-7-|
D|-0-0--4-4--12-12--7-7--0-0--4-4--12-12--7-7-7-7-|
A|-0-0--2-2--10-10--5-5--0-0--2-2--10-10--5-5-5-5-|
D|-0-0-------10-10--5-5--0-0-------10-10--5-5-5-5-|

e|--------------------------------------------------------|
B|--------------------------------------------------------|
G|-4-4-4-4-4-4-4-4---2-2-2-2-2-2-2-2----------------------|
D|-4-4-4-4-4-4-4-4---2-2-2-2-2-2-2-2---2-2-2-2-2-2-2-4-5~-|
A|-2-2-2-2-2-2-2-2---0-0-0-0-0-0-0-0---2-2-2-2-2-2-2-4-5~-|
D|-------------------------------------2-2-2-2-2-2-2-4-5~-|

Verse
(The first guitar is the same as the first verse)

Guitar 2
e|-----------------------------------------|
B|--------------------------------10-------|
G|-11-9-11--11-12-11--11-9-11--11----11-9~-|
D|-----------------------------------------|
A|-----------------------------------------|
D|-----------------------------------------|

e|--------------------------------------|
B|--------------------------------------|
G|-9~--------7~-----------9b-11-9p-7h9~-|
D|--------------------------------------|
A|--------------------------------------|
D|--------------------------------------|

e|--------------------------------10----------------------|
B|--------------------------------------------------------|
G|-9~--------12-12-12-12-12-12-12----12-11h12-11-9/7-7/9~-|
D|--------------------------------------------------------|
A|--------------------------------------------------------|
D|--------------------------------------------------------|

e|--------------------------------------|
B|--------------------------------------|
G|-9~--------7~-----------9b-11-9p-7h9~-|
D|--------------------------------------|
A|--------------------------------------|
D|--------------------------------------|

e|--------------------------------10----10---10----|
B|-------------------------------------------------|
G|-9~--------12-12-12-12-12-12-12----12----12---12-|
D|-------------------------------------------------|
A|-------------------------------------------------|
D|-------------------------------------------------|

Pre Chorus
(Guitar 1 is the same as the first pre chours)

Guitar 2
e|-14-10-14-10-12-10-12-10-14-10-14-10-15-10-15-10-|
B|-------------------------------------------------|
G|-------------------------------------------------|x2
D|-------------------------------------------------|
A|-------------------------------------------------|
D|-------------------------------------------------|

Chorus
(same as the first one)

Solo

Guitar 1 (repeats this)
e|---------------------------------------------------|
B|---------------------------------------------------|
G|-3-3-3-3-3-3-3--5-5-5-5-5-5-5--7-7-7-7-7-7-7-7-7-7-|
D|-3-3-3-3-3-3-3--5-5-5-5-5-5-5--7-7-7-7-7-7-7-7-7-7-|
A|-1-1-1-1-1-1-1--3-3-3-3-3-3-3--5-5-5-5-5-5-5-5-5-5-|
D|---------------------------------------------------|

Guitar 2
e|-----------------------------------------------------------|
B|-----------------------------------------------------------|
G|-17b-19-17-15-17--17b-19-17-15-17--17-17-17-17-19-19-19-19-|
D|-----------------------------------------------------------|
A|-----------------------------------------------------------|
D|-----------------------------------------------------------|

e|---------------------|
B|---------------------|
G|-11-11-11-11-7-7-7-7-|
D|-X--X--X--X--X-X-X-X-|
A|-9--9--9--9--5-5-5-5-|
D|---------------------|

e|-------------------------------------------------------------|
B|-------------------------------------------------------------|
G|-10-10-10-10-9-9-9-9-5-5-5-5-7-7-7-7-11-11-11-11-11-11-12-14-|
D|-X--X--X--X--X-X-X-X-X-X-X-X-X-X-X-X-X--X--X--X--X--X--X--X--|
A|-8--8--8--8--7-7-7-7-3-3-3-3-5-5-5-5-9--9--9--9--9--9--10-12-|
D|-------------------------------------------------------------|

e|---------------------------------------------|
B|-----------------------5/7-------5/7-----5/7-|
G|-5~------------------------------------------|
D|------7h8-7-5-4--4-5-7-----4-5-7-----4-5-----|
A|---------------------------------------------|
D|---------------------------------------------|

e|--------------------------------21b-22-20----20---------------|
B|------------------15b-17-18-17------------17----17-15b-17-15~-|
G|-17b-19-17-15-17----------------------------------------------|
D|--------------------------------------------------------------|
A|--------------------------------------------------------------|
D|--------------------------------------------------------------|

Chorus

e|------------------------|
B|-3-3--------------------|
G|-2-2--4-4------------7~-|
D|-0-0--4-4--12-12-12--7~-|
A|-0-0--2-2--10-10-10--5~-|
D|-0-0-------10-10-10--5~-|

e|--------------------------|
B|-3-3----------------------|
G|-2-2--4-4--12-12--7-7-7-7-|
D|-0-0--4-4--12-12--7-7-7-7-|
A|-0-0--2-2--10-10--5-5-5-5-|
D|-0-0-------10-10--5-5-5-5-|

e|-------------------------------------------------------------------|
B|-------------------------------------------------------------------|
G|-4-4-4-4-4-4-4-4---2-2-2-2-2-2-2-2---------------------------------|
D|-4-4-4-4-4-4-4-4---2-2-2-2-2-2-2-2---2-2-2-2-2-2-2-4-5-5-5-5-5-5-5-|
A|-2-2-2-2-2-2-2-2---0-0-0-0-0-0-0-0---2-2-2-2-2-2-2-4-5-5-5-5-5-5-5-|
D|-------------------------------------2-2-2-2-2-2-2-4-5-5-5-5-5-5-5-|

e|--------------------------------------------------------|
B|--------------------------------------------------------|
G|-4-4-4-4-4-4-4-4---2-2-2-2-2-2-2-2----------------------|
D|-4-4-4-4-4-4-4-4---2-2-2-2-2-2-2-2---2-2-2-2-2-2-2-4-5~-|
A|-2-2-2-2-2-2-2-2---0-0-0-0-0-0-0-0---2-2-2-2-2-2-2-4-5~-|
D|-------------------------------------2-2-2-2-2-2-2-4-5~-|

Outro

e|----------------------------|
B|----------------------------|
G|-4-4-4-4--2-2-2-2--7-7-7-7~-|
D|-4-4-4-4--2-2-2-2--7-7-7-7~-|
A|-2-2-2-2--0-0-0-0--5-5-5-5~-|
D|-------------------5-5-5-5~-|

e|-------------------------------------------|
B|-----3----------------------------------3~-|
G|-2-2---2---2--4---4------------7--------2~-|
D|-2-------2----4-4---4--4---7-7---7---7--0~-|
A|-0------------2-------2----5-------5----0~-|
D|---------------------------5------------0~-|

The End
_____________________________________________________________________________
Track 9 - Homecoming Queen

Standard Tuning

Intro
e|--------88--77-|
B|-66--88--------|
G|---------------|
D|---------------|
A|---------------|
E|---------------|


Guitar 1
e|--------88--77--------88--77-|
B|-----------------------------|
G|-55--77--------55--77--------|x2
D|-----------------------------|
A|-----------------------------|
E|-----------------------------|

Guitar 2:
e|---------------------------------|
B|---------------------------------|
G|-5-5-5-5-5-5-5-5-5-5-5-5-5-5-5-5-|x2
D|-5-5-5-5-5-5-5-5-5-5-5-5-5-5-5-5-|
A|-3-3-3-3-3-3-3-3-3-3-3-3-3-3-3-3-|
E|---------------------------------|

Guitar 1:
e|-----------------------------------------88--77-------88--77-|
B|--------55--66--88--66--55--------6--55--------66--55--------|
G|-55--77--------------------77--5-----------------------------|
D|-------------------------------------------------------------|
A|-------------------------------------------------------------|
E|-------------------------------------------------------------|
Guitar 2:
e|--------------------------------------------------------------------|
B|--------------------------------------------------------------------|
G|------------------------------------5-5-5-5-5-5-5-5-5-5-5-5-5-5-5-5-|
D|-3-3-3-3-3-3-3-3-3-3-3-3-3-3-3-3-3--5-5-5-5-5-5-5-5-5-5-5-5-5-5-5-5-|
A|-3-3-3-3-3-3-3-3-3-3-3-3-3-3-3-3-3--3-3-3-3-3-3-3-3-3-3-3-3-3-3-3-3-|
E|-1-1-1-1-1-1-1-1-1-1-1-1-1-1-1-1-1----------------------------------|

Verse
e|----------------------------|
B|----------------------------|
G|-5--------------5-----------|
D|-5----5----3----5----5----3-|
A|-3----5----3----3----5----3-|
E|------3----1---------3----1-|

Pre Chorus
e|-------------------------------------------------|
B|-------------------------------------------------|
G|-------------------------------------------------|
D|-77777777--55555555--33333333--33333333-55555555-|
A|-77777777--55555555--33333333--33333333-55555555-|
E|-55555555--33333333--11111111--11111111-33333333-|
   .. ... .  .. ... .  .. ... .  ........ ........

Chorus:
e|----------------------------|
B|----------------------------|
G|-5--------------------5-----|
D|-5-x16--5------3------5-x16-|
A|-3------5-x16--3-x16--3-----|
E|--------3------1------------|

Intro

Verse

Chorus x2

Bridge
e|-----------------------|
B|-----------------------|
G|-----------------------|
D|-3---7---5---3---5---3-|
A|-3---7---5---3---5---3-|
E|-1---5---3---1---3---1-|

Chorus x2

Intro

The End
_____________________________________________________________________________
Track 10 - Shoulda

Standard Tuning

Intro
e|---------------------------------|
B|---------------------------------|
G|-3-3-3-3-6-6-6-6-----------------|x2
D|-3-3-3-3-6-6-6-6-3-3-3-3-6-6-6-6-|
A|-1-1-1-1-4-4-4-4-3-3-3-3-6-6-6-6-|
E|-----------------1-1-1-1-4-4-4-4-|


Verse 1
e|---------------------------------|
B|---------------------------------|
G|-----------------3-3-3-3-6-6-6-6-|
D|-3-3-3-3-6-6-6-6-3-3-3-3-6-6-6-6-|
A|-3-3-3-3-6-6-6-6-1-1-1-1-4-4-4-4-|
E|-1-1-1-1-4-4-4-4-----------------|

e|-------------------|
B|-------------------|
G|-----------------5~|
D|-3-3-3-3-6-6-6-6-5~|
A|-3-3-3-3-6-6-6-6-3~|
E|-1-1-1-1-4-4-4-4---|

e|---------------------------------|
B|---------------------------------|
G|-3-3-3-3-6-6-6-6-----------------|
D|-3-3-3-3-6-6-6-6-3-3-3-3-6-6-6-6-|
A|-1-1-1-1-4-4-4-4-3-3-3-3-6-6-6-6-|
E|-----------------1-1-1-1-4-4-4-4-|

e|-----------------|
B|-----------------|
G|-3-3-3-3-6-6-6-6-|
D|-3-3-3-3-6-6-6-6-|
A|-1-1-1-1-4-4-4-4-|
E|-----------------|


Chorus
e|-------------------------|
B|-------------------------|
G|-------------8-8-8-3-3-3-|
D|-3-3-3-6-6-6-8-8-8-3-3-3-|
A|-3-3-3-6-6-6-6-6-6-1-1-1-|
E|-1-1-1-4-4-4-------------|

e|----------------------------|
B|----------------------------|
G|-------------8-8-8-3-3-3-6~-|
D|-3-3-3-6-6-6-8-8-8-3-3-3-6~-|
A|-3-3-3-6-6-6-6-6-6-1-1-1-4~-|
E|-1-1-1-4-4-4----------------|


Verse 2
e|---------------------------------|
B|---------------------------------|
G|-----------------3-3-3-3-6-6-6-6-|
D|-3-3-3-3-6-6-6-6-3-3-3-3-6-6-6-6-|
A|-3-3-3-3-6-6-6-6-1-1-1-1-4-4-4-4-|
E|-1-1-1-1-4-4-4-4-----------------|

e|-------------------|
B|-------------------|
G|-----------------5~|
D|-3-3-3-3-6-6-6-6-5~|
A|-3-3-3-3-6-6-6-6-3~|
E|-1-1-1-1-4-4-4-4---|

e|---------------------------------|
B|---------------------------------|
G|-3-3-3-3-6-6-6-6-----------------|
D|-3-3-3-3-6-6-6-6-3-3-3-3-6-6-6-6-|
A|-1-1-1-1-4-4-4-4-3-3-3-3-6-6-6-6-|
E|-----------------1-1-1-1-4-4-4-4-|

e|-----------------|
B|-----------------|
G|-3-3-3-3-6-6-6-6-|
D|-3-3-3-3-6-6-6-6-|
A|-1-1-1-1-4-4-4-4-|
E|-----------------|


Chorus
e|-------------------------|
B|-------------------------|
G|-------------8-8-8-3-3-3-|
D|-3-3-3-6-6-6-8-8-8-3-3-3-|
A|-3-3-3-6-6-6-6-6-6-1-1-1-|
E|-1-1-1-4-4-4-------------|

e|----------------------------|
B|----------------------------|
G|-------------8-8-8-3-3-3-6~-|
D|-3-3-3-6-6-6-8-8-8-3-3-3-6~-|
A|-3-3-3-6-6-6-6-6-6-1-1-1-4~-|
E|-1-1-1-4-4-4----------------|


Bridge
e|-----------------------------------------|
B|-----------------------------------------|
G|-3-3-3-3-3-6-6-6-6-6---------------------|x2
D|-3-3-3-3-3-6-6-6-6-6-3-3-3-3-3-6-6-6-6-6-|
A|-1-1-1-1-1-4-4-4-4-4-3-3-3-3-3-6-6-6-6-6-|
E|---------------------1-1-1-1-1-4-4-4-4-4-|

e|-------------------------|
B|-------------------------|
G|-6~------6-6-6-6-6-6-6-6-|
D|-6~------6-6-6-6-6-6-6-6-|
A|-4~------4-4-4-4-4-4-4-4-|
E|-------------------------|
pm         ................

e|----------------------------|
B|----------------------------|
G|-33-3--66-6-----------------|
D|-33-3--66-6-3-3-3-3-6-6-6-6-|
A|-11-1--44-4-3-3-3-3-6-6-6-6-|
E|------------1-1-1-1-4-4-4-4-|

e|---------------------------------|
B|---------------------------------|x2
G|-3-3-3-3-6-6-6-6-----------------|
D|-3-3-3-3-6-6-6-6-3-3-3-3-6-6-6-6-|
A|-1-1-1-1-4-4-4-4-3-3-3-3-6-6-6-6-|
E|-----------------1-1-1-1-4-4-4-4-|

e|-----------------|
B|-----------------|
G|-3-3-3-3-6-6-6-6-|
D|-3-3-3-3-6-6-6-6-|
A|-1-1-1-1-4-4-4-4-|
E|-----------------|

e|-------------------------|
B|-------------------------|
G|-------------8-8-8-3-3-3-|
D|-3-3-3-6-6-6-8-8-8-3-3-3-|
A|-3-3-3-6-6-6-6-6-6-1-1-1-|
E|-1-1-1-4-4-4-------------|

e|----------------------------|
B|----------------------------|
G|-------------8-8-8-3-3-3-6~-|
D|-3-3-3-6-6-6-8-8-8-3-3-3-6~-|
A|-3-3-3-6-6-6-6-6-6-1-1-1-4~-|
E|-1-1-1-4-4-4----------------|

The End

Well thats it! that was alota hard work so enjoy!

            
            
Suggest correction
Creating personal tab
Creating personal tab
You can edit any tab online and save it as your Personal.

You can edit, replace or remove any tab part or add personal notes – all changes will be seen only by you.

Personal tabs can be accessed anytime from any device, even offline.
Learn more »
comments
print report bad tab
7 comments total. Showing first comments.
0 reply
michal23 117 May 20, 2007 07:00 AM

Most of the songs were simply copied off other already existant tabs, while a lot of them were missing any lead guitar parts at all.

0 reply
ssj3 barry 186 May 20, 2007 05:44 PM

i done most of the other tabs

0 reply
brandon6091 10 Jul 21, 2007 04:08 PM

do you know the tabs or chords to bed of roses form the extreme behavior cd with bonus tracks?

guest
You may want to rate the tab now too:
select rating
Wanna post a correction for this tab? Suggest correction