Oops, an error
Loading. Please wait.

How Long Tab

version 1
version 1

Whole song

Interactive

8,316 views 1 this week
4 commentsread comments
1 2 3 4 5
accurate
x 11
add to favorites
launch autoscroll
font size
0
reset
how to read this tab
guitar tuner
Tab Pro tools
  • play this tab
  • loop segment
  • change instrument
  • show fretboard
  • metronome
Autoscroll
slow
fast
+/-
esc
set tempo
stop
Contributor
Difficulty
intermediate
Tabbed by:Steven Zakall
Email:zakall_69@hotmail.com

Tuning:Standard Tuning

Intro - X3
e|-------------------------------------------------------------------------|
B|-------------------------------------------------------------------------|
G|-------------------------------------------------------------------------|
D|---77--555---3-333--555--77----------------------------------------------|
A|---55--333---1-111--333--55----------------------------------------------|
E|-------------------------------------------------------------------------|
verse - X3
e|-------------------------------------------------------------------------|
B|-------------------------------------------------------------------------|
G|-------------------------------------------------------------------------|
D|---7-77-7-77-7----------------5-55-5-55-5--------------------------------|
A|---5-55-5-55-5---3-33-3-33-3--3-33-3-33-3---5-55-5-55-5------------------|
E|-----------------1-11-1-11-1----------------3-33-3-33-3------------------|
       **   **       **   **      **   **       **   **
---I cant Sit Here with you..
e|-------------------------------------------------------------------------|
B|-------------------------------------------------------------------------|
G|-------------------------------------------------------------------------|
D|---5555--3333---555---777--7777------------------------------------------|
A|---3333--1111---333---555--5555------------------------------------------|
E|-------------------------------------------------------------------------|
                             ****
verse --whyd you go and break whats already broken...
e|-------------------------------------------------------------------------|
B|-------------------------------------------------------------------------|
G|-------------------------------------------------------------------------|
D|---77--555---3-333--555--77----------------------------------------------|
A|---55--333---1-111--333--55----------------------------------------------|
E|-------------------------------------------------------------------------|

Bridge - X3
e|-------------------------------------------------------------------|
B|-------------------------------------------------------------------|
G|-------------------------------------------------------------------|
D|-----55\3/5--XXX---3-3-/1\3/1\3------------------------------------|
A|-----55\3/5--XXX---1-1-/3\1/3\1------------------------------------|
E|-----33\1/3--XXX---------------------------------------------------|
                          B B B B

e|-------------------------------------------------------------------|
B|-------------------------------------------------------------------|
G|---------------3-33-3----/1\3/1\3----------------------------------|
D|--55\3/5--XXX--3-33-3----/1\3/1\3----------------------------------|
A|--55\3/5--XXX--1-11-1----/3\1/3\1----------------------------------|
E|--33\1/3--XXX------------------------------------------------------|
                   **       B B B B 

This is the whole song except the lead guitar in the background.
Its very easy to figure out the rythym for this song i did it in about 15 minutes..
Email me if you have any questions..
zakall_69@hotmail.com


| /  slide up
| \  slide down
| *  palm mute
| X  Natural Harmonic
| B  Bend
comments
print report bad tab
4 comments total. Showing first comments.
0 reply
CmS wrote on November 20 2006, 05:37 pm

I thought Hinder was Dropped D?
Idk, dont listen to me.

0 reply
JBMetal311 wrote on January 7 2007, 07:37 pm

Where's the other guitar part???

0 reply
guitarboy34 wrote on March 23 2007, 11:21 am

This tab is supposed to be in drop D with three note chord voicings on the 5th string root power chords. However, the basics are in this song and it gets you to where you want to be going. Good Job! 4 stars

I want to post or [tab]
guest
You may want to rate the tab now too:
select rating
Please do not post tabs as comments. Select "correction" instead!