Oops, an error
Loading. Please wait.

Lips Of An Angel Tab

version 2
version 2
45,310 views 6 this week
23 commentsread comments
1 2 3 4 5
accurate
x 28
add to favorites
launch autoscroll
font size
0
reset
how to read this tab
guitar tuner
Tab Pro tools
  • play this tab
  • loop segment
  • change instrument
  • show fretboard
  • metronome
×
Best way to learn
"Lips Of An Angel"
Autoscroll
slow
fast
+/-
esc
set tempo
stop
Contributor
Difficulty
Tuning
novice
D A D G B E
----------------------------------------------------------------------------

Artist:Hinder
Song:Lips of an angel
Album:Extreme Behavior

Tabbed by: Nolan Soloman
This tab is 100--| accurate nothing is wrong it is the same how hinder plays it, this 
is my first tab and it's play in drop D so D-G-C-F-A-D
-----------------|
Intro/verse
guitar 1 (play this till the pre-chorus)
D---------0---------------0------|------0-----------------0----------|
A-----------0---------------0----|--------0-----------------0--------|
F---4--4--------4--4/6--6-----6-0|-2--2-------2--0--1--1--------1--x-|
C---4--4--------4--4/6--6-----6-0|-2--2-------2--0--2--2--------2--x-|
G---2--2--------2--2/4--4-----4-0|-0--0-------0--0--2--2--------2--x-|
D--------------------------------|------------------0--0--------0--x-|

verse
guitar 2
D-----------------|-----------------------------------------------|
A-----------------|-----------------------------------------------|
F----11~----------|-(11)--11~---------------11p9----9------(9)/11-|
C-----------------|-----------------------------------------------|
G-----------------|-----------------------------------------------|
D-----------------|-----------------------------------------------|

guitar 1
D---------0---------------0------|-0--0---0--0--0--0--0--0---0--0----|
A-----------0---------------0----|-0--0---0--0--0--0--0--0---0--0----|
F---4--4--------4--4/6--6-----6-0|-2--2---2--2--2--2--2--2---2--2--0-|
C---4--4--------4--4/6--6-----6-0|-2--2---2--2--2--2--2--2---2--2--0-|
G---2--2--------2--2/4--4-----4-0|-0--0---0--0--0--0--0--0---0--0--0-|
D--------------------------------|-----------------------------------|

pre-chorus
guitar 1
D--0------0--0--0---0-------0--0--0-0------0--0--0-0-------0--0--0-------|
A--0--0---0--0--0---0-------0--0--0-0------0--0--0-0-------0--0--0-------|
F--1--1---1--1--1---4---4---4--4--4/6---6--6--6--6\2---2---2--2--2-------|
C--2--2---2--2--2---4---4---4--4--4/6---6--6--6--6\2---2---2--2--2-------|
G--2--2---2--2--2---2---2---2--2--2/4---4--4--4--4\0---0---0--0--0-------|
D--0--0---0--0--0--------------------------------------------------------|x2

chorus
D--0-0-0-0-0-0---0-0-0-0----|-0-0--------0-----0--0-0-0-0-0-0-0--0-0-0-0-0-|
A--0-0-0-0-0-0---0-0-0-0----|-3-3--------0-----0--0-0-0-0-0-0-0--0-0-0-0-0-|
F--9-9-9-9-9\4---4-4-4-4--x-|-2-2--x--x--2-----2--2-2-2-2-2-2/9--9-9-9-9-9/|
C--9-9-9-9-9\4---4-4-4-4--x-|-0-0--x--x--2-----2--2-2-2-2-2-2/9--9-9-9-9-9/|
G--7-7-7-7-7\2---2-2-2-2--x-|-0-0--x--x--0-----0--0-0-0-0-0-0-7--7-7-7-7-7/|
D---------------------------|----------------------------------------------|

D---0---0-0-0-0-----0--0-----------------|--------------------------------|
A---0---0-0-0-0-----3--3-----------------|--------------------------------|
F--/4---4-4-4-4--x--2--2-----------------|-2-2-2/6-6-6-6-6-6-6-6-6-6-6-6/-|
C--/4---4-4-4-4--x--0--0---2-2-2-2-2-2-2-|-2-2-2/6-6-6-6-6-6-6-6-6-6-6-6/-|
G--/2---2-2-2-2--x--0--0---0-0-0-0-0-0-0-|-0-0-0-4-4-4-4-4-4-4-4-4-4-4-4/-|
D----------------------------------------|--------------------------------|
pm                         .........

D-----------------------0-0-0--|---------------------------------------|
A-----------------------0-0-0--|---------------------------------------|
F--/4---4-4-4-4-4-4-4-4-4-4-4--|---------------------------------------|
C--/4---4-4-4-4-4-4-4-4-4-4-4--|--4---4---4---4---4---4---4---4---4--x-|
G--/2---2-2-2-2-2-2-2-2-2-2-2--|--4---4---4---4---4---4---4---4---4--x-|
D------------------------------|--2---2---2---2---2---2---2---2---2--x-|

D-------------|
A-------------|
F-------------|
C---6---x--7--|
G---7---x--7--|
D---4---x--5--|

verse
guitar 1

D---------0---------------0------|------0-----------------0----------|
A-----------0---------------0----|--------0-----------------0--------|
F---4--4--------4--4/6--6-----6-0|-2--2-------2--0--1--1--------1--x-|
C---4--4--------4--4/6--6-----6-0|-2--2-------2--0--2--2--------2--x-|
G---2--2--------2--2/4--4-----4-0|-0--0-------0--0--2--2--------2--x-|
D--------------------------------|------------------0--0--------0--x-|

guitar 2
D-----------------------------------|-------------------------7------|
A--------9---7---9-----9---10----9--|----9---7---9-------9--------9--|
F----/9-------------9---------------|--9-------------9---------------|
C-----------------------------------|--------------------------------|
G-----------------------------------|--------------------------------|
D-----------------------------------|--------------------------------|

D----------------------|-----------------------------|
A----7~---------7p5----|---7^-(7)p5------7-----(7)\--|
F----------------------|-----------------------------|
C----------------------|-----------------------------|
G----------------------|-----------------------------|
D----------------------|-----------------------------|

D------------12-------12------12------------12------|--------------------|
A--/10--10--------10--------9------9---10-------9\--|---5h7-----------7\-|
F---------------------------------------------------|--------------------|
C---------------------------------------------------|--------------------|
G---------------------------------------------------|--------------------|
D---------------------------------------------------|--------------------|

D--------------------------------------------|
A----3h5---------7^----7p5-----7----------7\-|
F---------------x----------------------------|
C--------------x-----------------------------|
G--------------------------------------------|
D--------------------------------------------|

D-------------12----12---------12----------------|
A--/10--10-------10-----10--12----12/14----14----|
F---------------------------------------14----14-|
C------------------------------------------------|
G------------------------------------------------|
D------------------------------------------------|

D---/16----16----14------14--------16------16----17----17-------|
A-------17----17-----16------16--------17-----17----17----17----|
F---------------------------------------------------------------|
C---------------------------------------------------------------|
G---------------------------------------------------------------|
D---------------------------------------------------------------|x2

chorus

D--0-0-0-0-0-0---0-0-0-0----|-0-0--------0-----0--0-0-0-0-0-0-0--0-0-0-0-0-|
A--0-0-0-0-0-0---0-0-0-0----|-3-3--------0-----0--0-0-0-0-0-0-0--0-0-0-0-0-|
F--9-9-9-9-9\4---4-4-4-4--x-|-2-2--x--x--2-----2--2-2-2-2-2-2/9--9-9-9-9-9/|
C--9-9-9-9-9\4---4-4-4-4--x-|-0-0--x--x--2-----2--2-2-2-2-2-2/9--9-9-9-9-9/|
G--7-7-7-7-7\2---2-2-2-2--x-|-0-0--x--x--0-----0--0-0-0-0-0-0-7--7-7-7-7-7/|
D---------------------------|----------------------------------------------|

D---0---0-0-0-0-----0--0-----------------|--------------------------------|
A---0---0-0-0-0-----3--3-----------------|--------------------------------|
F--/4---4-4-4-4--x--2--2-----------------|-2-2-2/6-6-6-6-6-6-6-6-6-6-6-6/-|
C--/4---4-4-4-4--x--0--0---2-2-2-2-2-2-2-|-2-2-2/6-6-6-6-6-6-6-6-6-6-6-6/-|
G--/2---2-2-2-2--x--0--0---0-0-0-0-0-0-0-|-0-0-0-4-4-4-4-4-4-4-4-4-4-4-4/-|
D----------------------------------------|--------------------------------|
pm                         .........

D-----------------------0-0-0--|---------------------------------------|
A-----------------------0-0-0--|---------------------------------------|
F--/4---4-4-4-4-4-4-4-4-4-4-4--|---------------------------------------|
C--/4---4-4-4-4-4-4-4-4-4-4-4--|--4---4---4---4---4---4---4---4---4--x-|
G--/2---2-2-2-2-2-2-2-2-2-2-2--|--4---4---4---4---4---4---4---4---4--x-|
D------------------------------|--2---2---2---2---2---2---2---2---2--x-|

D------------------------------------------------|
A------------------------------------------------|
F------------------------------------------------|
C---6-----7--7--7--7--7--7--7--7--7--7--x--x-----|
G---7-----7--7--7--7--7--7--7--7--7--7--x--x-----|
D---4-----5--5--5--5--5--5--5--5--5--5--x--x-----|


solo

D-----------------------------------------|-16--16-----------------|
A--15^-(15)p12-15~-----15^---15h-15~-15-15|-15--15---17--17--17\---|
F-----------------------------------------|-16--16---16--16--16\---|
C-----------------------------------------|------------------------|
G-----------------------------------------|------------------------|
D-----------------------------------------|------------------------|

D--12--12--15--15--14-14-12-12--14-14--12------------------16-16--16-16-|
A--12--12--12--12--12-12-12-12--12-12--12--13--13---15-15--15-15--15-15-|
F-----------------------------------------16--16------------------16-16-|
C-----------------------------------------------------------------------|
G-----------------------------------------------------------------------|
D-----------------------------------------------------------------------|

D--16--16\---------|----------------------------------------|
A--15--15\---------|--7~---5--7--5~----4h5p4~---2h4p2---2p1-|
F--16--16\---------|----------------------------------------|
C------------------|----------------------------------------|
G------------------|----------------------------------------|
D------------------|----------------------------------------|

D----------------------------------------------|
A-------9-(9)\--------------9\-------------9/--|
F--1h2/----------1h2--(2)\-----------1--2------|
C----------------------------------------------|
G----------------------------------------------|
D----------------------------------------------|
                         1/2
D-----------------12-14-14^-(14)p12h~---22^-(20)----22----22-------|
A--15^--(15)p12h15~------------------------------20----19----------|
F------------------------------------------------------------19-21-|
C------------------------------------------------------------------|
G------------------------------------------------------------------|
D------------------------------------------------------------------|

    gradually bend-------------------------------------|
   1/4-----   1/2-----   3/4---------------------------|
D------------------------------------------------------|
A------------------------------------------------------|
F--21^--(21)---21^--(21)---21^--(21)--21^---(21)h19----|
C------------------------------------------------------|
G------------------------------------------------------|
D------------------------------------------------------|

Chorus

guitar 1
chorus
D---------0----------0---------|----0-----------0------0-0-0-0--|
A-----------0----------0-----0-|----0-----------0------0-0-0-0--|
F---9--9--------4--4------4--0-|-7--7----x--x---2------2-2-2-2--|
C---9--9--------4--4---------0-|-7--7----x--x---2------2-2-2-2--|
G---7--7--------2--2-----------|-5-------x--x---0------0-0-0-0--|
D------------------------------|--------------------------------|

guitar 2
D------------------|
A---21~----(21)\---|
F------------------|
C------------------|
G------------------|
D------------------|

guitar 1
D--0-0-0-0-0-0---0-0-0-0----|-0-0--------0-----0--0-0-0-0-0-0-0--0-0-0-0-0-|
A--0-0-0-0-0-0---0-0-0-0----|-3-3--------0-----0--0-0-0-0-0-0-0--0-0-0-0-0-|
F--9-9-9-9-9\4---4-4-4-4--x-|-2-2--x--x--2-----2--2-2-2-2-2-2/9--9-9-9-9-9/|
C--9-9-9-9-9\4---4-4-4-4--x-|-0-0--x--x--2-----2--2-2-2-2-2-2/9--9-9-9-9-9/|
G--7-7-7-7-7\2---2-2-2-2--x-|-0-0--x--x--0-----0--0-0-0-0-0-0-7--7-7-7-7-7/|
D---------------------------|----------------------------------------------|

D---0---0-0-0-0-----0--0-----------------|--------------------------------|
A---0---0-0-0-0-----3--3-----------------|--------------------------------|
F--/4---4-4-4-4--x--2--2-----------------|-2-2-2/6-6-6-6-6-6-6-6-6-6-6-6/-|
C--/4---4-4-4-4--x--0--0---2-2-2-2-2-2-2-|-2-2-2/6-6-6-6-6-6-6-6-6-6-6-6/-|
G--/2---2-2-2-2--x--0--0---0-0-0-0-0-0-0-|-0-0-0-4-4-4-4-4-4-4-4-4-4-4-4/-|
D----------------------------------------|--------------------------------|
pm                         .........

D-----------------------0-0-0--|---------------------------------------|
A-----------------------0-0-0--|---------------------------------------|
F--/4---4-4-4-4-4-4-4-4-4-4-4--|---------------------------------------|
C--/4---4-4-4-4-4-4-4-4-4-4-4--|--4---4---4---4---4---4---4---4---4--x-|
G--/2---2-2-2-2-2-2-2-2-2-2-2--|--4---4---4---4---4---4---4---4---4--x-|
D------------------------------|--2---2---2---2---2---2---2---2---2--x-|

D-------------|
A-------------|
F-------------|
C---6---x--7--|
G---7---x--7--|
D---4---x--5--|

D---2/------------16~----------14~-|---17------16-----17-----16-------14-|
A----------------------------------|-------17-----17-----17-----17----17-|
F----------------------------------|-------------------------------------|
C----------------------------------|-------------------------------------|
G----------------------------------|-------------------------------------|
D----------------------------------|-------------------------------------|

D--0-----0---0-0---0--0------0-0-|-0---0-0---0---0--0------0-|
A--0-----0---0-0---0--0------0-0-|-0---0-0---0---0--0------0-|
F--6-----6---6-6---4--4------4-4-|-2---2-2---2---2--2---x--0-|
C--6-----6---6-6---4--4------4-4-|-2---2-2---2---2--2---x----|
G--4-----4---4-4---2--2------2-2-|-0---0-0---0---0--0---x----|
D--------------------------------|---------------------------|

D---------0---------------0------|------0-------------0--|
A-----------0---------------0----|--------0-----------0--|
F---4--4--------4--4/6--6-----6-0|-2--2-------2--2----1--|
C---4--4--------4--4/6--6-----6-0|-2--2-------2--2----2--|
G---2--2--------2--2/4--4-----4-0|-0--0-------0--0----2--|
D--------------------------------|--------------------0--|
                                                    strum down.


thats the end this took me 3 and a half hours to tab but it was worth it.
comments
print report bad tab
23 comments total. Showing first comments.
0 reply
DisplacedLogic wrote on February 5 2007, 07:50 am

That just ruined my day! I'd been working on this tab for a couple hours and I get on to see you beat me to it! About time someone got the right tuning. There are a couple spots I don't agree with, but it's just the chord voicing. Looks good to me!

0 reply
incubosity wrote on February 5 2007, 08:14 am

From the tab book...so you know its pretty much on!! Nice work.

-1 reply
jaymrock741 wrote on February 5 2007, 03:50 pm

how the hell is this right? you can listen to 10 seconds of the song and know this is wrong

I want to post or [tab]
guest
You may want to rate the tab now too:
select rating
Please do not post tabs as comments. Select "correction" instead!