Oops, an error
Loading. Please wait.
We have Chord Pro version of Lips Of An Angel.
It's the closest thing you can get to the original song and it has interactive parts. Check out the tab »
×
by Hinder
7,114 views 6 this week
no commentswrite comment
1 2 3 4 5
x 3
add to favorites
launch autoscroll
font size
0
reset
how to read this tab
guitar tuner
backing track
0:00
0:00
Autoscroll
slow
fast
+/-
esc
set tempo
stop
Difficulty
Tuning
intermediate
D A D G B E
Tabbed By: Kurt Ryan D. Velasco
Tuning Drop D

Song: Lips of an Angel
Artist: Hinder
19819181

Intro
|--------------|--------------|--------------|--------------|
|-----3--------|-----3--------|--------------|-----3--------|
|-2-2---2---2--|-4-4---4---4--|-----7--------|---2---2---2--| 1x
|-2-------2----|-4-------4----|-7-7---7---7--|-0-------0----|
|-0------------|-2------------|-5-------5----|-0------------|
|--------------|--------------|-5------------|-0------------|


Verse 1
Honey why you calling me,so late?
|--------------|--------------|--------------|--------------|
|-----3--------|-----3--------|--------------|-----3--------|
|-2-2---2---2--|-4-4---4---4--|-----7--------|---2---2---2--| 3x
|-2-------2----|-4-------4----|-7-7---7---7--|-0-------0----|
|-0------------|-2------------|-5-------5----|-0------------|
|--------------|--------------|-5------------|-0------------|


|--------------|--------------|----0----|
|-----3--------|-----3--------|----0----|
|-2-2---2---2--|-4-4---4---4--|----1----| 1x
|-2-------2----|-4-------4----|----2----|
|-0------------|-2------------|----2----|
|--------------|--------------|----0----|

Pre-Chorus

Well, the girl's in the next room, sometimes i wish she was you
|-------0---------0---------0---------0--------|
|-------0---------0---------0---------0--------|
|-------1---------4---------4---------2--------| 2x
|-------2---------4---------2---------2--------|
|-------2---------2---------4---------0--------|
|-------0---------0---------0---------0--------|


Chorus

it's really good to hear your voice saying my name and it sounds so sweet
|-------0---------0---------0---------0--------|
|-------0---------0---------0---------0--------|
|-------1---------4---------7---------2--------|2x
|-------2---------4---------7---------2--------|
|-------2---------2---------5---------0--------|
|-------0---------0---------0---------0--------|


and I don't wanna say goodbye 
|-------0---------0---------2---------0--<-----s--|
|-------0---------0---------2---------0--<--o--t--|
|-------6---------4---------2---------2--<--n--r--| 1x
|-------6---------4---------4---------2--<--e--u--|
|-------4---------2---------4---------0--<-----m--|
|-------0---------0---------2---------0--<--------|


Before verse 2 (solo)
|-------0---------0---------0-----|
|-------0---------0---------0-----|
|-------6---------4---------2-----|
|-------6---------4---------2-----| 1x
|-------4---------2---------0-----|
|-------0---------0---------0-----|


Verse 2

its funny that your calling me, tonight
|----0----0----0----0----0----0----0----0----|
|----0----0----0----0----0----0----0----0----|
|----4----6----2----1----4----4----2----1----| 1x
|----4----6----2----2----4----2----2----2----|
|----2----4----0----2----2----4----0----2----|
|----0----0----0----0----0----0----0----0----|

does he know your talking to me, will it start a fight
|----0----0----0----0---|
|----0----0----0----0---|
|----4----4----2----1---| 1x
|----4----2----2----2---|
|----2----4----0----2---|
|----0----0----0----0---|

No I don't think she has a clue
|----0----0----0----|
|----0----0----0----|
|----4----4----2----| 1x
|----4----2----2----|
|----2----4----0----|
|----0----0----0----|

(repeat pre-chorus)
(repeat chorus)

|---0----0----0---|
|---0----0----0---|
|---5----7----1---| 3x
|---5----7----2---|
|---3----5----2---|
|---0----0----0---|


|---0----0----0---|
|---0----0----0---|
|---5----7----4---| 1x
|---5----7----4---|
|---3----5----2---|
|---0----0----0---|

its really good to hear your voice saying my name and it sounds so sweet
|-------0---------0---------0---------0--------|
|-------0---------0---------0---------0--------|
|-------1---------4---------4---------2--------| 
|-------2---------4---------2---------2--------|
|-------2---------2---------4---------0--------|
|-------0---------0---------0---------0--------|

Coming from the lips of an angel
|-------0---------0---------0---------0--------|
|-------0---------0---------0---------0--------|
|-------1---------4---------7---------2--------|
|-------2---------4---------7---------2--------|
|-------2---------2---------5---------0--------|
|-------0---------0---------0---------0--------|

and I don't wanna say goodbye 
|-------0---------0---------2---------0--------|
|-------0---------0---------2---------0--------|
|-------6---------4---------2---------2--------| 2x
|-------6---------4---------4---------2--------|
|-------4---------2---------4---------0--------|
|-------0---------0---------2---------0--------|

(repeat intro)
Honey why you calling me,so late?
|--------------|--------------|-------------0----|
|-----3--------|-----3--------|-------------0----|
|-2-2---2---2--|-4-4---4---4--|-----7-------1----| 
|-2-------2----|-4-------4----|-7-7---7---7-2----|
|-0------------|-2------------|-5-------5---2----|
|--------------|--------------|-5-----------0----|




































Suggest correction
Give kudos to tab author, rate the tab!
1 2 3 4 5
comments
print report bad tab
guest
You may want to rate the tab now too:
select rating
Wanna post a correction for this tab? Suggest correction