Oops, an error
Loading. Please wait.
We have Chord Pro version of Lips Of An Angel.
It's the closest thing you can get to the original song and it has interactive parts. Check out the tab »
×
by Hinder
18,540 views 15 this week
no commentswrite comment
1 2 3 4 5
x 3
add to favorites
×
Save as Personal and add changes to this tab that will be seen only by you. Learn more ›
×
You can save this tab as Personal to edit and correct it or add notes. All changes will be seen only by you. Learn more »
launch autoscroll
font size
0
reset
how to read this tab
guitar tuner
backing track
0:00
0:00
edit
Autoscroll
slow
fast
+/-
esc
set tempo
stop
Author
Its really a pretty easy song on the acoustic, I dont have the solo, but
the chords you can plug in sound great. Its played a whole step down

  (Intro/Verse)
|-------0----------------0----------------0--------------0---------|
|----------0----------------0----------------0--------------0------|
|------------------------------------------------------------------|
|--9--9------9-9--11--11------11-11--7--7------7-7--2--2------2-2--|
|--9--9------9-9--11--11------11-11--7--7------7-7--2--2------2-2--|
|--7--7------7-7--9---9-------9--9---5--5------5-5--0--0------0-0--|

  Honey, why you callin me so late?
|-------0----------------0----------------0--------------0---------|
|----------0----------------0----------------0--------------0------|
|------------------------------------------------------------------|
|--9--9------9-9--11--11------11-11--7--7------7-7--2--2------2-2--|
|--9--9------9-9--11--11------11-11--7--7------7-7--2--2------2-2--|
|--7--7------7-7--9---9-------9--9---5--5------5-5--0--0------0-0--|

  Its kinda hard to talk right now.
|-------0----------------0----------------0--------------0---------|
|----------0----------------0----------------0--------------0------|
|------------------------------------------------------------------|
|--9--9------9-9--11--11------11-11--7--7------7-7--2--2------2-2--|
|--9--9------9-9--11--11------11-11--7--7------7-7--2--2------2-2--|
|--7--7------7-7--9---9-------9--9---5--5------5-5--0--0------0-0--|

  Honey, why you crying? Is everything ok?
|-------0----------------0----------------0--------------0---------|
|----------0----------------0----------------0--------------0------|
|------------------------------------------------------------------|
|--9--9------9-9--11--11------11-11--7--7------7-7--2--2------2-2--|
|--9--9------9-9--11--11------11-11--7--7------7-7--2--2------2-2--|
|--7--7------7-7--9---9-------9--9---5--5------5-5--0--0------0-0--|

  I gotta whisper cause I cant be too loud. Well...
|-------0----------------0----------------0------------0-0--|
|----------0----------------0----------------0---------0-0--|
|--------------------------------------------------6-6-6-6--|
|--9--9------9-9--11--11------11-11--7--7------7-7-7-7-7-7--|
|--9--9------9-9--11--11------11-11--7--7------7-7-7-7-7-7--|
|--7--7------7-7--9---9-------9--9---5--5------5-5-5-5-5-5--|



  (Prechorus)
  My girls in the next room, sometimes I wish she was you.
|--0--0----0-0-0-0-0-0----0--0-----0-0-0-0-0-0--|
|--0--0----0-0-0-0-0-0----0--0-----0-0-0-0-0-0--|
|--1--1----8-8-8-8-8-8----x--x-----6-6-6-6-6-6--|
|--2--2----9-9-9-9-9-9----11-11----7-7-7-7-7-7--|
|--2--2----9-9-9-9-9-9----11-11----7-7-7-7-7-7--|
|--0--0----7-7-7-7-7-7----9--9-----5-5-5-5-5-5--|

  I guess we never really moved on.
|--0--0----0-0-0-0-0-0----0--0--0--0--0------0-0-0-0-0--|
|--0--0----0-0-0-0-0-0----0--0--0--0--0------0-0-0-0-0--|
|--1--1----8-8-8-8-8-8----x--x--x--x--x------6-6-6-6-6--|
|--2--2----9-9-9-9-9-9----11-11-11-11-11-----7-7-7-7-7--|
|--2--2----9-9-9-9-9-9----11-11-11-11-11-----7-7-7-7-7--|
|--0--0----7-7-7-7-7-7----9--9--9--9--9------5-5-5-5-5--|



  (Chorus)
  Its really good to hear your voice, saying my name! It sounds so sweet!
|--0--0----0-0-0-0-0-0----0--0----0-0-0-0-0--|
|--0--0----0-0-0-0-0-0----0--0----0-0-0-0-0--|
|--1--1----8-8-8-8-8-8----11-11---6-6-6-6-6--|
|--2--2----9-9-9-9-9-9----12-12---7-7-7-7-7--|
|--2--2----9-9-9-9-9-9----12-12---7-7-7-7-7--|
|--0--0----7-7-7-7-7-7----10-10---5-5-5-5-5--|

  Comin from the lips of an angel, hearin those words, it makes me weak!
|--0--0----0-0-0-0-0-0----0--0----0-0-0-0-0--|
|--0--0----0-0-0-0-0-0----0--0----0-0-0-0-0--|
|--1--1----8-8-8-8-8-8----11-11---6-6-6-6-6--|
|--2--2----9-9-9-9-9-9----12-12---7-7-7-7-7--|
|--2--2----9-9-9-9-9-9----12-12---7-7-7-7-7--|
|--0--0----7-7-7-7-7-7----10-10---5-5-5-5-5--|

  And I, never wanna say goodbye, but girl you make it
|--0--0--0--0--0--0--0--0-----0-0-0-0-0-0-0-0--|
|--0--0--0--0--0--0--0--0-----0-0-0-0-0-0-0-0--|
|--x--x--x--x--x--x--x--x-----8-8-8-8-8-8-8-8--|
|--11-11-11-11-11-11-11-11----9-9-9-9-9-9-9-9--|
|--11-11-11-11-11-11-11-11----9-9-9-9-9-9-9-9--|
|--9--9--9--9--9--9--9--9-----7-7-7-7-7-7-7-7--|

  hard to be faithful, with the lips of an angel.
|------------------------0--0--0--0--0--0-0-0-0-0--0-0-0-0-0--|
|------------------------0--0--0--0--0--0-0-0-0-0--0-0-0-0-0--|
|------------------------x--x--x--x--x--8-8-8-8-8--6-6-6-6-6--|
|--4-4-4-4-4-4-4s6-7-----11-11-11-11-11-9-9-9-9-9--7-7-7-7-7--|
|--4-4-4-4-4-4-4s6-7-----11-11-11-11-11-9-9-9-9-9--7-7-7-7-7--|
|--2-2-2-2-2-2-2s4-5-----9--9--9--9--9--7-7-7-7-7--5-5-5-5-5--|



  (Solo Chords)
~Just play C, D, and E, and switch off between the low E and high E the first 
three times, then play C, D, B, and switch over to the chorus.
| C  | D  |High E|Low E| B  |
|-0--|-0--|--0---|--0--|-0--|
|-0--|-0--|--0---|--0--|-0--|
|-9--|-11-|--13--|--1--|-8--|
|-10-|-12-|--14--|--2--|-9--|
|-10-|-12-|--14--|--2--|-9--|
|-8--|-10-|--12--|--0--|-7--|

Intro
Verse
Prechorus
Chorus
Verse
Prechorus
Chorus
Solo
Chorus
1st Line of Verse

Hope you enjoy! Comment with any questions!

            
            
Suggest correction
Creating personal tab
Creating personal tab
You can edit any tab online and save it as your Personal.

You can edit, replace or remove any tab part or add personal notes – all changes will be seen only by you.

Personal tabs can be accessed anytime from any device, even offline.
Learn more »
Give kudos to tab author, rate the tab!
1 2 3 4 5
comments
print report bad tab
guest
You may want to rate the tab now too:
select rating
Wanna post a correction for this tab? Suggest correction