Oops, an error
Loading. Please wait.

Use Me Tab

version 1
version 1

Whole song

Interactive

29,276 views 1 this week
5 commentsread comments
1 2 3 4 5
x 8
add to favorites
launch autoscroll
font size
0
reset
how to read this tab
guitar tuner
Autoscroll
slow
fast
+/-
esc
set tempo
stop
Help us to improve Ultimate-Guitar.com Take our survey!
×
Author
Difficulty
Tuning
intermediate
D A D G B E
This is a rough tab which i hope to improve over time. It was a request by 'the first' 
i found a challenging.I gave it a go but feel free to send any missing solos or any 
you may have.

E|--------------------------|
B|--------------------------|
G|-7-x14--5-x3--8-x14--5-x3-| There is defiantly double stop in the intro
D|--------------------------| but i cant find the other note.
A|--------------------------|
D|--------------------------|

Intro lead lick
E|-------------------------------|
B|-------------------------------|
G|-12-----12-10---------------12-|
D|--------------12-11-10-8-------|
A|-------------------------10----|
D|-------------------------------|

(0:22)
   G
E|----7---8----10----8----10-----11-----10----8-----10---8-7-|
B|-8-8-8-8-8-8----8-8--8-8---8-8----8-8---8-8---8-8----8-----|
G|-----------------------------------------------------------|
D|-----------------------------------------------------------|
A|-----------------------------------------------------------|
D|-----------------------------------------------------------|

Verse (0:33) (work out strumming pattern)
E|--------------------------------|
B|--------------------------------|
G|-3-5-5--------3-5-5-7-7-7-------|
D|-3-5-5-3-5-5--3-5-5-7-7-7-3-3-3-|
A|-1-3-3-3-5-5--1-3-3-5-5-5-3-3-3-|
D|-------3-5-5--------------3-3-3-|

Pre-chorus (0:56)
E|---------------------|
B|---------------------|
G|---------------------|
D|-0-0-0-0-0-0-0-0-0-0-|
A|-0-0-0-0-0-0-0-0-0-0-|
D|-0-0-0-0-0-0-0-0-0-0-|

Chorus
E|-----------------------|
B|-----------------------|
G|----3-5------5-5-5-5-5-|
D|-5--3-5----3-5-5-5-5-5-| Work out strumming times
A|-5--1-3----3-3-3-3-3-3-|
D|-5---------3-----------|

solo (2:28)
E|-------------------------20-19-17-15 -17-15-13----|
B|-------------18-18-----------------------------15-|
G|-15-15-14-14-------14-14--------------------------|
D|--------------------------------------------------|
A|--------------------------------------------------|
D|--------------------------------------------------|
Suggest correction
comments
print report bad tab
5 comments total. Showing first comments.
0 reply
the first 10 Aug 14, 2008 04:06 PM

hey its pretty cool and i understand its a hard songs so thanx

0 reply
Mcr14 7,513 Sep 08, 2008 08:29 AM

Hey thanks to all those who have rated my tab. please keep commenting and rating my tabs :)

0 reply
sephiroth1k 16 Sep 28, 2008 07:14 AM

Gd tab... sounds pretty gd 2 me:) nd btw I think that the extra double stop note is fret 8 on the B string for all the notes, so 7-8, 5-8 and 8-8. Hope you understood that:P thanx for the tab.

guest
You may want to rate the tab now too:
select rating
Wanna post a correction for this tab? Suggest correction