Oops, an error
Loading. Please wait.

Castigadas En El Granero Tab

157 views 6 this week
no commentswrite comment
1 2 3 4 5
3 more votes to show rating
add to favorites
launch autoscroll
font size
0
reset
how to read this tab
guitar tuner
Autoscroll
slow
fast
+/-
esc
set tempo
stop
Help us to improve Ultimate-Guitar.com Take our survey!
×
Author
About this tab version
This tab is for Ana's part of the song. Was this info helpful? Yes No
VIVA HINDS!!! :)

By Fiona 
Email: fiona-k-w@live.com

[Intro]

E|3-3-1-3-3-1-3-1-0-0-3-3-1-3-3-1-3-1-3-6-3-3-6-3-3-6-3-3-6---3|
B|3-3-1-3-3-1-3-1-0-0-3-3-1-3-3-1-3-1-3-6-3-3-6-3-3-6-3-3-6---3|
G|4-4-2-4-4-2-4-2-0-0-4-4-2-4-4-2-4-2-4-7-4-4-7-4-4-7-4-4-7---4|
D|5-5-3-5-5-3-5-3-2-2-5-5-3-5-5-3-5-3-5-8-5-5-8-5-5-8-5-5-8---5|
A|5-5-3-5-5-3-5-3-2-2-5-5-3-5-5-3-5-3-5-8-5-5-8-5-5-8-5-5-8---5|
E|3-3-1-3-3-1-3-1-0-0-3-3-1-3-3-1-3-1-3-6-3-3-6-3-3-6-3-3-6---3|


[Verse]
Guitar 1

"All I know..."
E|----------------------------------------------------------------------------------------------|
B|----------------------------------------------------------------------------------------------|
G|4--7--4---4--7--4--9-9-7-4--7--4-9-9-7-7-4--7--4--9-9-7-7-4--7--4-9-9-7-7-4-7-4-9-7-4-7-4-9-7-|
D|----------------------------------------------------------------------------------------------|
A|----------------------------------------------------------------------------------------------|
E|----------------------------------------------------------------------------------------------|

E|--------------------------------------------------|
B|-----------------12-----12------------------------|
G|12-12-12-12-12-12--12-12--12-9-9-9-7-7-9-7-9-7-9-7|
D|--------------------------------------------------|
A|--------------------------------------------------|
E|--------------------------------------------------|

E|----------------------------------------------------------------------------|
B|----------------------------------------------------------------------------|
G|12-12-12-15-15-15-15-15-15-15-15-12-9-9-12-12-9-9-12-12-15-15-17-17-19-19-21|
D|----------------------------------------------------------------------------|
A|----------------------------------------------------------------------------|
E|----------------------------------------------------------------------------|

"You should know..."
E|---------------------------------------------------------------------------------------|
B|---------------------------------------------------------------------------------------|
G|4--7--4-9-9-7-7-4--7--4-9-9-7-7-4-7-4-9-9-7-7-4-7-4-9-9-7-7-4-7-4-9-9-7-7-4-7-4-9-9-7-7|
D|---------------------------------------------------------------------------------------|
A|---------------------------------------------------------------------------------------|
E|---------------------------------------------------------------------------------------|


E|--------------------------------------------------|
B|-----------------12-----12------------------------|
G|12-12-12-12-12-12--12-12--12-9-9-9-7-7-9-7-9-7-9-7|
D|--------------------------------------------------|
A|--------------------------------------------------|
E|--------------------------------------------------|

E|----------------------------------------------------------------------------|
B|----------------------------------------------------------------------------|
G|12-12-12-15-15-15-15-15-15-15-15-12-9-9-12-12-9-9-12-12-15-15-17-17-19-19-21|
D|----------------------------------------------------------------------------|
A|----------------------------------------------------------------------------|
E|----------------------------------------------------------------------------|

"And all i see is a big cow..."

[Chorus] (Both play these chords):

E|3-3-6|
B|3-2-6|
G|4-2-7|
D|5-2-8|
A|5-3-8|
E|3-3-6|

[Verse]

"Back in time..."
E|-------------------------------------------------------------|
B|-------------------------------------------------------------|
G|4--7--4-9-9-7-7-4--7--4-9-9-7-7-4-7-4-9-7-4-7-4-9-7-4-7-4-9-7|
D|-------------------------------------------------------------|
A|-------------------------------------------------------------|
E|-------------------------------------------------------------|

E|-----------------------------------------------------------------------------------------------------------|
B|-----------------------------------------------------------------------------------------------------------|
G|4-4-4--7-9-7--4-4-4-7-9-7/4-4-4--7-9-7--4-7-9-12-15-12---15-12---9-12---15-15-9-12-15--15-15-17-17-19-19-21|
D|-----------------------------------------------------------------------------------------------------------|
A|-----------------------------------------------------------------------------------------------------------|
E|-----------------------------------------------------------------------------------------------------------|


[Outro/ chorus]

E|3-3-6-3|
B|3-2-6-3|
G|4-2-7-4|
D|5-2-8-5|
A|5-3-8-5|
E|3-3-6-3|
Suggest correction
Give kudos to tab author, rate the tab!
1 2 3 4 5
comments
print report bad tab
guest
You may want to rate the tab now too:
select rating
Wanna post a correction for this tab? Suggest correction