Oops, an error
Loading. Please wait.

Suicide Saturday solo tab

version 1
version 1

Solo

Whole song

  • Updated chords - Correction by greengrassfish.
1,498 views 9 this week
no commentswrite comment
1 2 3 4 5
x 4
add to favorites
×
Save as Personal and add changes to this tab that will be seen only by you. Learn more ›
×
You can save this tab as Personal to edit and correct it or add notes. All changes will be seen only by you. Learn more »
launch autoscroll
font size
0
reset
how to read this tab
guitar tuner
edit
Autoscroll
slow
fast
+/-
esc
set tempo
stop
Author
Difficulty
E|--0-----------------0---------------0--------0----
B|--0-----------------1---------------1--------1----
G|--0--0--0--2--------2---------------2--------2----
D|--1-----------2--0--3--2------------3--------3----    Repeat
A|--2-----------------0------3--0-----0--0-----0--0-
E|--0-----------------0------------3--0-----3--0----


Chords 

     CM7      FM7
E|--0--------0---------
B|--0--------1---------
G|--0--------2---------
D|--2--------3---------
A|--3--------0---------
E|-----------0---------

Little different sound than how it sounds in the song,
I think it has a little more substance if you're playing solo... Enjoy!

            
            
Suggest correction
Creating personal tab
Creating personal tab
You can edit any tab online and save it as your Personal.

You can edit, replace or remove any tab part or add personal notes – all changes will be seen only by you.

Personal tabs can be accessed anytime from any device, even offline.
Learn more »
comments
print report bad tab
guest
You may want to rate the tab now too:
select rating
Wanna post a correction for this tab? Suggest correction