Oops, an error
Loading. Please wait.

Suicide Saturday tab

version 2
version 2

Whole song

  • Updated chords - Correction by greengrassfish.
3,799 views 78 this week
3 commentsread comments
1 2 3 4 5
x 9
add to favorites
×
Save as Personal and add changes to this tab that will be seen only by you. Learn more ›
×
You can save this tab as Personal to edit and correct it or add notes. All changes will be seen only by you. Learn more »
launch autoscroll
font size
0
reset
how to read this tab
guitar tuner
edit
Autoscroll
slow
fast
+/-
esc
set tempo
stop
Author
Difficulty
-------------------------------------------------------------------------------
                             SUICIDE SATURDAY - Hippo Campus
-------------------------------------------------------------------------------
Tabbed by: marc240

Tuning: EADGBe

IMPORTANT NOTE: Please listen to the song to help you understand the rhythm of each guitar part.


LEAD GUITAR


INTRO (from 0:00 to 0:26)

e|---------------------------------------------------------------------------------------------------------|
B|---------------------------------------------------------------------------------------------------------|
G|---------------------------------------------------------------------------------------------------------|
D|-----------5--5---7-----------------------------------------------5--5---7-------------------------------|
A|--7-----------------7---5--5---7-3-------3------3------5/7-----------------7---5--5---7-3-------3------3-|
E|-------------------------------------5-3----5-3----5-3--------------------------------------5-3----5-3---|

e|---------------------------------------------------------------------------------------------------------|
B|---------------------------------------------------------------------------------------------------------|
G|---------------------------------------------------------------------------------------------------------|
D|---------------5--5---7----------------------------------------------5--5---7----------------------------|
A|------3-----------------7---5--5---7-3-------3------3------5/7----------------7---5--5---7-3-------3-----|
E|--5-3------------------------------------5-3----5-3----5-3-------------------------------------5-3-------|

e|------------------|
B|------------------|
G|------------------|
D|------------------|
A|------3------3----|
E|--5-3----5-3------|



VERSE 1 (from 0:26 to 0:50)

e|---------------------------------------------------------------------------------------------------------|
B|---------------------------------------------------------------------------------------------------------|
G|---------------------------------------------------------------------------------------------------------|
D|--5--5---7-----------------------------------------------5--5---7----------------------------------------|
A|-----------7---5--5---7-3-------3------3------5/7-----------------7---5--5---7-3-------3------3------3---|
E|----------------------------5-3----5-3----5-3--------------------------------------5-3----5-3----5-3-----|

e|---------------------------------------------------------------------------------------------------------|
B|---------------------------------------------------------------------------------------------------------|
G|---------------------------------------------------------------------------------------------------------|
D|--------5--5--7----------------------------------------------5--5--7-------------------------------------|
A|----------------7---5--5--7-3-------3------3------5/7----------------7---5--5--7-3-------3------3--------|
E|--------------------------------5-3----5-3----5-3------------------------------------5-3----5-3----5-3---|



CHORUS 1 (from 0:50 to 1:14)

e|---------------------------------------------------------------------------------------------------------|
B|---------------------------------------------------------------------------------------------------------|
G|---------------------------------------------------------------------------------------------------------|
D|-----------5--5---7-----------------------------------------------5--5---7-------------------------------|
A|--7-----------------7---5--5---7-3-------3------3------5/7-----------------7---5--5---7-3-------3------3-|
E|-------------------------------------5-3----5-3----5-3--------------------------------------5-3----5-3---|

e|---------------------------------------------------------------------------------------------------------|
B|---------------------------------------------------------------------------------------------------------|
G|---------------------------------------------------------------------------------------------------------|
D|---------------5--5---7-----------------------------------------------5--5---7---------------------------|
A|------3-----------------7---5--5---7-3-------3------3------5/7-----------------7---5--5--7-3-------3-----|
E|--5-3------------------------------------5-3----5-3----5-3-------------------------------------5-3-------|

e|------------------|
B|------------------|
G|------------------|
D|------------------|
A|------3------3----|
E|--5-3----5-3------|



VERSE 2 (from 1:14 to 1:39)

e|---------------------------------------------------------------------------------------------------------|
B|-------------------------------------------------------------------------------------------------------7-|
G|---------------------------------------------------------------------------------------------------5-7---|
D|--------5--5---7-----------------------------------------------5--5---7------------------------5-7-------|
A|-----------------7---5--5---7-3-------3------3------5/7-----------------7---5--5---7-3---3-5/7-----------|
E|----------------------------------5-3----5-3----5-3------------------------------------------------------|

e|------5---------------5---------------5---------------5---------------5---------------5---------------5--|
B|--------5---8-5-----5---5---8-5-----5---5---8-5-----5---5---8-5-----5---5---8-5-----5---5---8-5-----5----|
G|--7-5-----5-----5-7-------5-----5-7-------5-----5-7-------5-----5-7-------5-----5-7-------5-----5-7------|
D|---------------------------------------------------------------------------------------------------------|
A|---------------------------------------------------------------------------------------------------------|
E|---------------------------------------------------------------------------------------------------------|
        . . . . . . . . . . . . . . . . . . . . . . . . . . . . . . . . . . . . . . . . . . . . . . . . .

e|---------------------------------|
B|--5---8-5-----5-5-5-5-5-5-5-5-5--|
G|----5-----5-7---5-5-5-5-5-5-5-5--|
D|---------------------------------|
A|---------------------------------|
E|---------------------------------|
    . . . . . . . 



CHORUS 2 (from 1:39 to 2:03)

e|--7--7---7----7--7---7----8--8---8-------8-8-8--8-8-8--|
B|--8--8---8----8--8---8---10-10--10------101010-101010--|
G|--9--9---9----9--9---9----9--9---9-------9-9-9--9-9-9--| X4
D|--x--x---x----x--x---x---10-10--10------101010-101010--|
A|--x--x---x----x--x---x----x--x---x-------x-x-x--x-x-x--|
E|--x--x---x----x--x---x----x--x---x-------x-x-x--x-x-x--|



BRIDGE (PART 1) (from 2:03 to 2:40)

e|--12--------------15/17--15-17p15--------------15/17--15-17p15----------15--------------15/17--15-17p15--|
B|--12------------------------------17-15-17---------------------17-15-17----17-15-17----------------------|
G|--12-----------------------------------------------------------------------------------------------------|
D|---------------------------------------------------------------------------------------------------------|
A|---------------------------------------------------------------------------------------------------------|
E|---------------------------------------------------------------------------------------------------------|
     a

e|-------------------------------------12-------12-------12-------12-------12----------12-------12---------|
B|--17-15-17---13------------------13-----12-------12-------12-------12-------12----12----13-------13------|
G|------------------14---12---14-------------12-------12-------12-------12-------12----------14-------14---|
D|---------------------------------------------------------------------------------------------------------|
A|---------------------------------------------------------------------------------------------------------|
E|---------------------------------------------------------------------------------------------------------|
                                           .  .     .  .     .  .     .  .     .  .  .     .  .     .  .

e|--12-------12-------12----------12-------12-------12-------12-------12----------12-------12--------------|
B|-----13-------13-------13----13----12-------12-------12-------12-------12----12----13-------13-----------|
G|--------14-------14-------14----------12-------12-------12-------12-------12----------14-------14--------|
D|---------------------------------------------------------------------------------------------------------|
A|---------------------------------------------------------------------------------------------------------|
E|---------------------------------------------------------------------------------------------------------|
        .  .     .  .     .  .  .     .  .     .  .     .  .     .  .     .  .  .     .  .     .  .

e|--12-------12-------15-15-15-15-12-------12-------12-------12-------12----------12-------12--------------|
B|-----13-------13-------------------12-------12-------12-------12-------12----12----13-------13-----------|
G|--------14-------14-------------------12-------12-------12-------12-------12----------14-------14--------|
D|---------------------------------------------------------------------------------------------------------|
A|---------------------------------------------------------------------------------------------------------|
E|---------------------------------------------------------------------------------------------------------|
        .  .     .  .                 .  .     .  .     .  .     .  .     .  .  .     .  .     .  . 

e|--12-------12-------12----------15-------15-------15-------15-------15----------12-12-12-12-12-12-12-12--|
B|-----13-------13-------13----13----12-------12-------12-------12-------12----12-13-13-13-13-13-13-13-13--|
G|--------14-------14-------14----------12-------12-------12-------12-------12----14-14-14-13-14-14-14-14--|
D|---------------------------------------------------------------------------------------------------------|
A|---------------------------------------------------------------------------------------------------------|
E|---------------------------------------------------------------------------------------------------------|
        .  .     .  .     .  .  .     .  .     .  .     .  .     .  .     .  .  .

e|--12-12-12-12-12-12-12-12--|
B|--13-13-13-13-13-13-13-13--|
G|--14-14-14-14-14-14-14-14--|
D|---------------------------|
A|---------------------------|
E|---------------------------|



BRIDGE (PART 2) (from 2:40 to 2:52)

e|---------------------------------------------------------------------------------------------------------|
B|----------------8------------------------8-------------------------8-------------------------------------|
G|--------7---9--------9p7---------7---9--------9p7----------7---9--------9p7---7-9----7-9----7-9p7--------|
D|--10------------------------10-----------------------10-------------------------------------------10-7---|
A|---------------------------------------------------------------------------------------------------------|
E|---------------------------------------------------------------------------------------------------------|

e|--------------|
B|--------------|
G|--------------|
D|--10-10-7-----|
A|----------10--|
E|--------------|



CHORUS 3 (from 2:53 to 3:17)

e|--7--7---7----7--7---7----8--8---8-------8-8-8--8-8-8--|
B|--8--8---8----8--8---8---10-10--10------101010-101010--|
G|--9--9---9----9--9---9----9--9---9-------9-9-9--9-9-9--| X3
D|--x--x---x----x--x---x---10-10--10------101010-101010--|
A|--x--x---x----x--x---x----x--x---x-------x-x-x--x-x-x--|
E|--x--x---x----x--x---x----x--x---x-------x-x-x--x-x-x--|

e|--7--7---7----7--7---7----------------------------------------|
B|--8--8---8----8--8---8----------------------------------------|
G|--9--9---9----9--9---9--7-9----7-9----7-9p7-------------------|
D|--x--x---x----x--x---x----------------------10-7-10-10-7------|
A|--x--x---x----x--x---x-----------------------------------10---|
E|--x--x---x----x--x---x----------------------------------------|



OUTRO (from 3:17 to 3:29)

e|---------------------------------------------------------------------------------------------------------|
B|---------------------------------------------------------------------------------------------------------|
G|---------------------------------------------------------------------------------------------------------|
D|-------------5--5---7-----------------------------------------------5--5---7-----------------------------|
A|--5/7-----------------7---5--5---7-3-------3------3------5/7-----------------7---5--5---7-3---------3----|
E|---------------------------------------5-3----5-3----5-3--------------------------------------5-3-5---5--|

e|-------------|
B|-------------|
G|-------------|
D|-------------|
A|-------------|
E|--5-3--3--3--|




RHYTHM GUITAR


INTRO (from 0:00 to 0:26)

e|--0--------------------------0---------------------------0---------------------------0-------------------|
B|--0--------------------------1---------------------------0---------------------------1-------------------|
G|--0--------------------------2---------------------------0---------------------------2-------------------|
D|--2--------------------------3---------------------------2---------------------------3-------------------|
A|--3--------------------------3---------------------------3---------------------------3-------------------|
E|--x--------------------------x---------------------------x---------------------------x-------------------|
    a                          a                           a                           a

e|--0--------------------------0---------------------------0---------------------------0-------------------|
B|--0--------------------------1---------------------------0---------------------------1-------------------|
G|--0--------------------------2---------------------------0---------------------------2-------------------|
D|--2--------------------------3---------------------------2---------------------------3-------------------|
A|--3--------------------------3---------------------------3---------------------------3-------------------|
E|--x--------------------------x---------------------------x---------------------------x-------------------|
    a                          a                           a                           a

e|-------0----|
B|-------0----|
G|-------0----|
D|-------2----|
A|-------3----|
E|-------x----|
         a


VERSE 1 (from 0:26 to 0:50)

e|------------------0---------------------------0--------------------------0---------------------------0---|
B|------------------1---------------------------0--------------------------1---------------------------0---|
G|------------------2---------------------------0--------------------------2---------------------------0---|
D|------------------3---------------------------2--------------------------3---------------------------2---|
A|------------------3---------------------------3--------------------------3---------------------------3---|
E|------------------x---------------------------x--------------------------x---------------------------x---|
                    a                           a                          a                           a 

e|------------------0---------------------------0--------------------------0-------------0-0-0-0-0-0-0-0---|
B|------------------1---------------------------0--------------------------0-------------1-1-1-1-1-1-1-1---|
G|------------------2---------------------------0--------------------------0-------------2-2-2-2-2-2-2-2---|
D|------------------3---------------------------2--------------------------2-------------3-3-3-3-3-3-3-3---|
A|------------------3---------------------------3--------------------------3-------------3-3-3-3-3-3-3-3---|
E|------------------x---------------------------x--------------------------x-------------x-x-x-x-x-x-x-x---|
                    a                           a                          a


CHORUS 1 (from 0:50 to 1:14)

e|--0--0---0----0--0---0----0--0---0-------0-0-0--0-0-0--|
B|--0--0---0----0--0---0----1--1---1-------1-1-1--1-1-1--|
G|--0--0---0----0--0---0----2--2---2-------2-2-2--2-2-2--| X4
D|--2--2---2----2--2---2----3--3---3-------3-3-3--3-3-3--|
A|--3--3---3----3--3---3----3--3---3-------3-3-3--3-3-3--|
E|--x--x---x----x--x---x----x--x---x-------x-x-x--x-x-x--|



VERSE 2 (from 1:14 to 1:39)

e|--0------------------------0---------------------------0--------------------------0----------------------|
B|--0------------------------1---------------------------0--------------------------1----------------------|
G|--0------------------------2---------------------------0--------------------------2----------------------|
D|--2------------------------3---------------------------2--------------------------3----------------------|
A|--3------------------------3---------------------------3--------------------------3----------------------|
E|--x------------------------x---------------------------x--------------------------x----------------------|
    a                        a                           a                          a


e|--0-0-0-0-0-0-0-0-0-0-0-0-0-0-0-0-0-0-0-0-0-0-0-0-0-0-0-0-0-0-0-0-0-0-0-0-0-0-0-0-0-0-0-0-0-0-0-0-0-0-0--|
B|--0-0-0-0-0-0-0-0-0-0-0-0-0-0-0-0-1-1-1-1-1-1-1-1-1-1-1-1-1-1-1-1-0-0-0-0-0-0-0-0-0-0-0-0-0-0-0-0-1-1-1--|
G|--0-0-0-0-0-0-0-0-0-0-0-0-0-0-0-0-2-2-2-2-2-2-2-2-2-2-2-2-2-2-2-2-0-0-0-0-0-0-0-0-0-0-0-0-0-0-0-0-2-2-2--|
D|--2-2-2-2-2-2-2-2-2-2-2-2-2-2-2-2-3-3-3-3-3-3-3-3-3-3-3-3-3-3-3-3-2-2-2-2-2-2-2-2-2-2-2-2-2-2-2-2-3-3-3--|
A|--3-3-3-3-3-3-3-3-3-3-3-3-3-3-3-3-3-3-3-3-3-3-3-3-3-3-3-3-3-3-3-3-3-3-3-3-3-3-3-3-3-3-3-3-3-3-3-3-3-3-3--|
E|--x-x-x-x-x-x-x-x-x-x-x-x-x-x-x-x-x-x-x-x-x-x-x-x-x-x-x-x-x-x-x-x-x-x-x-x-x-x-x-x-x-x-x-x-x-x-x-x-x-x-x--|
    . . . . . . . . . . . . . . . . . . . . . . . . . . . . . . . . . . . . . . . . . . . . . . . . . . .   


e|--0-0-0-0-0-0-0-0-0-0-0-0-0--|
B|--1-1-1-1-1-1-1-1-1-1-1-1-1--|
G|--2-2-2-2-2-2-2-2-2-2-2-2-2--|
D|--3-3-3-3-3-3-3-3-3-3-3-3-3--|
A|--3-3-3-3-3-3-3-3-3-3-3-3-3--|
E|--x-x-x-x-x-x-x-x-x-x-x-x-x--|
    . . . . .


CHORUS 2 (from 1:39 to 2:03)

e|--0--0---0----0--0---0----0--0---0-------0-0-0--0-0-0--|
B|--0--0---0----0--0---0----1--1---1-------1-1-1--1-1-1--|
G|--0--0---0----0--0---0----2--2---2-------2-2-2--2-2-2--| X4
D|--2--2---2----2--2---2----3--3---3-------3-3-3--3-3-3--|
A|--3--3---3----3--3---3----3--3---3-------3-3-3--3-3-3--|
E|--x--x---x----x--x---x----x--x---x-------x-x-x--x-x-x--|




BRIDGE (PART 1) (from 2:03 to 2:40)

e|---------0---------------0---------------------0------------0----------------0---------------0-----------|
B|-----0-----------0---------------0---------1------1-----1-------1---1----0-----------0----------------0--|
G|---0---0-----0-------0-------0-----------2---2-------2----2---2--------0---0-----0-------0--------0------|
D|---2---------------------------2---------3------------------------3----2----------------------------2----|
A|---3-------3---3---3---3---3-------------3-----------------------------3-------3---3---3---3---3---------|
E|---------------------------------------------------------------------------------------------------------|
     a                                     a                             a


e|--------0------------0----------0-0-0-0-0-0-0-0-0-0-0-0-0-0-0-0-0-0-0-0-0-0-0-0-0-0-0-0-0-0-0-0-0-0-0-0--|
B|----1------1-----1-------1---1--0-0-0-0-0-0-0-0-0-0-0-0-0-0-0-0-1-1-1-1-1-1-1-1-1-1-1-1-1-1-1-1-0-0-0-0--|
G|--2---2-------2----2---2--------0-0-0-0-0-0-0-0-0-0-0-0-0-0-0-0-2-2-2-2-2-2-2-2-2-2-2-2-2-2-2-2-0-0-0-0--|
D|--3------------------------3----2-2-2-2-2-2-2-2-2-2-2-2-2-2-2-2-3-3-3-3-3-3-3-3-3-3-3-3-3-3-3-3-2-2-2-2--|
A|--3-----------------------------3-3-3-3-3-3-3-3-3-3-3-3-3-3-3-3-3-3-3-3-3-3-3-3-3-3-3-3-3-3-3-3-3-3-3-3--|
E|--------------------------------x-x-x-x-x-x-x-x-x-x-x-x-x-x-x-x-x-x-x-x-x-x-x-x-x-x-x-x-x-x-x-x-x-x-x-x--|
    a                             . . . . . . . . . . . . . . . . . . . . . . . . . . . . . . . . . . . .


e|--0-0-0-0-0-0-0-0-0-0-0-0-0-0-0-0-0-0-0-0-0-0-0-0-0-0-0-0-0-0-0-0-0-0-0-0-0-0-0-0-0-0-0-0-0-0-0-0-0-0-0--|
B|--0-0-0-0-0-0-0-0-0-0-0-0-1-1-1-1-1-1-1-1-1-1-1-1-1-1-1-1-0-0-0-0-0-0-0-0-0-0-0-0-0-0-0-0-1-1-1-1-1-1-1--|
G|--0-0-0-0-0-0-0-0-0-0-0-0-2-2-2-2-2-2-2-2-2-2-2-2-2-2-2-2-0-0-0-0-0-0-0-0-0-0-0-0-0-0-0-0-2-2-2-2-2-2-2--|
D|--2-2-2-2-2-2-2-2-2-2-2-2-3-3-3-3-3-3-3-3-3-3-3-3-3-3-3-3-2-2-2-2-2-2-2-2-2-2-2-2-2-2-2-2-3-3-3-3-3-3-3--|
A|--3-3-3-3-3-3-3-3-3-3-3-3-3-3-3-3-3-3-3-3-3-3-3-3-3-3-3-3-3-3-3-3-3-3-3-3-3-3-3-3-3-3-3-3-3-3-3-3-3-3-3--|
E|--x-x-x-x-x-x-x-x-x-x-x-x-x-x-x-x-x-x-x-x-x-x-x-x-x-x-x-x-x-x-x-x-x-x-x-x-x-x-x-x-x-x-x-x-x-x-x-x-x-x-x--|
    . . . . . . . . . . . . . . . . . . . . . . . . . . . . . . . . . . . . . . . . . . . . . . . . . . .

e|--0-0-0-0-0-0-0-0-0-0-0-0-0-0-0-0-0-0-0-0-0-0-0-0-0-0-0-0-0-0-0-0-0-0-0-0-0-0-0-0-0--|
B|--1-1-1-1-1-1-1-1-1-0-0-0-0-0-0-0-0-0-0-0-0-0-0-0-0-1-1-1-1-1-1-1-1-1-1-1-1-1-1-1-1--|
G|--2-2-2-2-2-2-2-2-2-0-0-0-0-0-0-0-0-0-0-0-0-0-0-0-0-2-2-2-2-2-2-2-2-2-2-2-2-2-2-2-2--|
D|--3-3-3-3-3-3-3-3-3-2-2-2-2-2-2-2-2-2-2-2-2-2-2-2-2-3-3-3-3-3-3-3-3-3-3-3-3-3-3-3-3--|
A|--3-3-3-3-3-3-3-3-3-3-3-3-3-3-3-3-3-3-3-3-3-3-3-3-3-3-3-3-3-3-3-3-3-3-3-3-3-3-3-3-3--|
E|--x-x-x-x-x-x-x-x-x-x-x-x-x-x-x-x-x-x-x-x-x-x-x-x-x-x-x-x-x-x-x-x-x-x-x-x-x-x-x-x-x--|
    . . . . . . . . . . . . . . . . . . . . . . . . . 


BRIDGE (PART 2) (from 2:40 to 2:52)

e|---------------15-----------------------20------------------------15---------13-15--13-15--13-15p13p12---|
B|--13---15--17-------17p15---17--18--20-------20p18---13---15--17------17p15------------------------------|
G|---------------------------------------------------------------------------------------------------------|
D|---------------------------------------------------------------------------------------------------------|
A|---------------------------------------------------------------------------------------------------------|
E|---------------------------------------------------------------------------------------------------------|

e|-----12-12--------|
B|--15-------15-13--|
G|------------------|
D|------------------|
A|------------------|
E|------------------|



CHORUS 3 (from 2:53 to 3:17)

e|--0--0---0----0--0---0----0--0---0-------0-0-0--0-0-0--|
B|--0--0---0----0--0---0----1--1---1-------1-1-1--1-1-1--|
G|--0--0---0----0--0---0----2--2---2-------2-2-2--2-2-2--| X3
D|--2--2---2----2--2---2----3--3---3-------3-3-3--3-3-3--|
A|--3--3---3----3--3---3----3--3---3-------3-3-3--3-3-3--|
E|--x--x---x----x--x---x----x--x---x-------x-x-x--x-x-x--|

e|--0--0---0----0--0---0----0-0-0-0-0-0-0-0-0-0-0-0-0-0-0-0--|
B|--0--0---0----0--0---0----1-1-1-1-1-1-1-1-1-1-1-1-1-1-1-1--|
G|--0--0---0----0--0---0----2-2-2-2-2-2-2-2-2-2-2-2-2-2-2-2--|
D|--2--2---2----2--2---2----3-3-3-3-3-3-3-3-3-3-3-3-3-3-3-3--|
A|--3--3---3----3--3---3----3-3-3-3-3-3-3-3-3-3-3-3-3-3-3-3--|
E|--x--x---x----x--x---x----x-x-x-x-x-x-x-x-x-x-x-x-x-x-x-x--|



OUTRO (from 3:17 to 3:29)

e|--0--------------------------0---------------------------0--------------------------0--------------------|
B|--0--------------------------1---------------------------0--------------------------1--------------------|
G|--0--------------------------2---------------------------0--------------------------2--------------------|
D|--2--------------------------3---------------------------2--------------------------3--------------------|
A|--3--------------------------3---------------------------3--------------------------3--------------------|
E|--x--------------------------x---------------------------x--------------------------x--------------------|
    a                          a                           a                          a



************************************

| a   arpeggio
| .   palm muting
| /   slide up
| \   slide down
| h   hammer-on
| p   pull-off
| ~   vibrato
| +   harmonic
| x   Mute note
| b   Bend
| pb  Pre-bend
| br  Bend release
| pbr Pre-bend release
| brb Bend release bend

************************************

            
            
Suggest correction
Creating personal tab
Creating personal tab
You can edit any tab online and save it as your Personal.

You can edit, replace or remove any tab part or add personal notes – all changes will be seen only by you.

Personal tabs can be accessed anytime from any device, even offline.
Learn more »
comments
print report bad tab
3 comments total.
+1 reply
guitarboi162 10 May 22, 2017 07:06 PM

Absolutely wonderful tab! Love this song!

0 reply
justicoop 67 Jun 14, 2017 05:22 AM

this is absolutely amazing, especially you got both guitars and the whole song. please do more hippo campus! hint hint violet

guest
You may want to rate the tab now too:
select rating
Wanna post a correction for this tab? Suggest correction