Oops, an error
Loading. Please wait.

Sula intro tab

version 1
version 1

Intro

  • The '0's at the beginning of every part are meant ... Show more
  • This is a great song by Hippo Campus and since the... Show more

Whole song

448 views 6 this week
no commentswrite comment
1 2 3 4 5
x 4
add to favorites
×
Save as Personal and add changes to this tab that will be seen only by you. Learn more ›
×
You can save this tab as Personal to edit and correct it or add notes. All changes will be seen only by you. Learn more »
launch autoscroll
font size
0
reset
how to read this tab
guitar tuner
edit
Autoscroll
slow
fast
+/-
esc
set tempo
stop
About this tab version
The '0's at the beginning of every part are meant to be played VERY close to the '7's but not at the exact same time as them. Was this info helpful? Yes No
[Intro]
E|-----------------------|------------------------|------------------------|
B|----7-5-2------2-------|----7-5-2-------2-2-2---|-----7-5-2-------2------|
G|-----------2-4---2-4---|-----------2-4----------|-------------2-4---2-4--|
D|-----------------------|------------------------|---0--------------------|
A|-0---------------------|---0--------------------|------------------------|
E|-----------------------|------------------------|------------------------|

E|-----------------------|
B|---7-5-2----2----------|
G|----------4---2-2-2----|
D|-----------------------|
A|-0---------------------|
E|-----------------------| (x4)

            
            
Suggest correction
Creating personal tab
Creating personal tab
You can edit any tab online and save it as your Personal.

You can edit, replace or remove any tab part or add personal notes – all changes will be seen only by you.

Personal tabs can be accessed anytime from any device, even offline.
Learn more »
comments
print report bad tab
guest
You may want to rate the tab now too:
select rating
Wanna post a correction for this tab? Suggest correction