Oops, an error
Loading. Please wait.

Vines chords

2,281 views 48 this week
no commentswrite comment
1 2 3 4 5
x 8
add to favorites
×
Save as Personal and add changes to this tab that will be seen only by you. Learn more ›
×
You can save this tab as Personal to edit and correct it or add notes. All changes will be seen only by you. Learn more »
launch autoscroll
font size
0
reset
transpose
0
reset
display chords
guitar tuner
edit
Autoscroll
slow
fast
+/-
esc
set tempo
stop
Author
Difficulty
Strumming
There is no strumming pattern for this song yet. and get +5 IQ
VINES by HIPPO CAMPUS from the album LANDMARK
No capo, standard tuning. Strum once for all chords.
I recommend listening to the song to ensure that you
are playing the tab correctly!

[Intro]
Guitar 1
e|----------------------3-3-3/5--0-8-----|
B|-5--5-3---------5----------------------|
G|-------------5-------------------------|
D|---5-----------5-----------------------|
A|---------------------------------------|
E|---------------------------------------|

Guitar 2
e|---------------------------------------|
B|---------------------------------------|
G|----5-5------5-5-----------------------|
D|-----5--------5------------------------|
A|---------------------------------------|
E|---------------------------------------|

[Verse]
N.C. (C)                 (F)
I see meaning where you don't, where you don't
N.C. (C)                (F)
I see waves of pastel, orange and yellow paintings fire
N.C. (C)                (F)
I see futures that you won't, that you won't
N.C. (C)                 (F)                            C
I see futures where our nights are lost to condensation

[Chorus]
C                 F                                      C
Nighttime in the basement, screaming 'bout our feelings
                     F                                  C
Running through the cold air, searching for a meaning
                   F                                  C
Passed out on the concrete, dizzy from the spinning
                F                                C
Wake up to the feeling that everybody's leaving

e|--------------------------------------------3333-3-----|
B|----5-3------------------------5-3----------------5----|
G|-5------5-2---2--------2----5------5-2---2-------------|  [x2]
D|------------5---5555-5-----------------5---------------|
A|-------------------------------------------------------|
E|-------------------------------------------------------|

[Verse]
N.C. (C)                                   (F)
I'm sick of your come downs, sick of your truce, sick of your way
N.C. (C)                        (F)
I'm sick of your tragedy that's living in our stasis
N.C. (C)                           (F)
I'm sick of echoes, sick of these ghosts that haunt our place
N.C. (C)                    (F)                            C
I get the feeling that I'll never leave this house again

[Chorus]
C                 F                                      C
Nighttime in the basement, screaming 'bout our feelings
                     F                                  C
Running through the cold air, searching for a meaning
                   F                                  C
Passed out on the concrete, dizzy from the spinning
                F                                C
Wake up to the feeling that everybody's leaving

e|--------------------------------------------3333-3-----|
B|----5-3------------------------5-3----------------5----|
G|-5------5-2---2--------2----5------5-2---2-------------|  [x2]
D|------------5---5555-5-----------------5---------------|
A|-------------------------------------------------------|
E|-------------------------------------------------------|

[Post-Chorus]
                  (Everybody's leaving)       (Everybody's leaving)
e|-------------------------------------------------------|
B|----5-3------------------------5-3---------------------|
G|-5------5-2---2-------2-----5------5-2---2-------------|
D|------------5---5-5-5------------------5---------------|
A|-------------------------------------------------------|
E|-------------------------------------------------------|

[Bridge] [x2]
C            F
Failed by design
           C            F
Slow your pace down to mine
          C             F
Watch my back, heave a sigh
         C             F
Keep it safe, make it right

Guitar 1
e|----------------------3-3-3/5----------|
B|-5--5-3---------5----------------------|
G|-------------5-------------------------|
D|---5-----------5-----------------------|
A|---------------------------------------|
E|---------------------------------------|

Guitar 2
e|---------------------------------------|
B|---------------------------------------|
G|----5-5------5-5-----------------------|
D|-----5--------5------------------------|
A|---------------------------------------|
E|---------------------------------------|

[Chorus](with bridge in background)
C                 F                                      C
Nighttime in the basement, screaming 'bout our feelings
                     F                                  C
Running through the cold air, searching for a meaning
                   F                                  C
Passed out on the concrete, dizzy from the spinning
                F                                C
Wake up to the feeling that everybody's leaving

e|--------------------------------------------3333-3-----|
B|----5-3------------------------5-3----------------5----|
G|-5------5-2---2--------2----5------5-2---2-------------|  [x2]
D|------------5---5555-5-----------------5---------------|
A|-------------------------------------------------------|
E|-------------------------------------------------------|



************************************

| /  Slide up

************************************
Suggest correction
Creating personal tab
Creating personal tab
You can edit any tab online and save it as your Personal.

You can edit, replace or remove any tab part or add personal notes – all changes will be seen only by you.

Personal tabs can be accessed anytime from any device, even offline.
Learn more »
comments
print report bad tab
guest
You may want to rate the tab now too:
select rating
Wanna post a correction for this tab? Suggest correction