Oops, an error
Loading. Please wait.

Violet tab

version 1
version 1

Whole song

  • The strumming pattern is weird so just listen to t... Show more
865 views 174 this week
1 commentread comment
1 2 3 4 5
x 3
add to favorites
×
Save as Personal and add changes to this tab that will be seen only by you. Learn more ›
×
You can save this tab as Personal to edit and correct it or add notes. All changes will be seen only by you. Learn more »
launch autoscroll
font size
0
reset
how to read this tab
guitar tuner
edit
Autoscroll
slow
fast
+/-
esc
set tempo
stop
[Intro]
        Rhythm
e|-0--0-0--0-0-0--0-0-0-0-0-0-0-0-|-0-0--0-0-0--0-0-0-0-0-0-0-0--------------|
B|-7--7-7--7-7-7--7-7-7-7-7-7-7-7-|-7-7--7-7-7--7-7-7-7-7-7-7-7--------------|
G|-8--8-8--8-8-8--8-8-8-8-8-8-8-8-|-8-8--8-8-8--8-8-8-8-8-8-8-8--------------|
D|-6--6-6--6-6-6--6-6-6-6-6-6-6-6-|-6-6--6-6-6--6-6-6-6-6-6-6-6--------------|
A|-7--7-7--7-7-7--7-7-7-7-7-7-7-7-|-7-7--7-7-7--7-7-7-7-7-7-7-7--------------|
E|-0--0-0--0-0-0--0-0-0-0-0-0-0-0-|-0-0--0-0-0--0-0-0-0-0-0-0-0--------------|
                                                                               (Repeat 2x)
e|-x--x-x--x-x-x--x-x-x-x-x-x-x-x-|--0--0-0--0-0-0--0-0-0-0-0-0-0-0----------|
B|-5--5-5--5-5-5--5-5-5-5-5-5-5-5-|--2--2-2--2-2-2--2-2-2-2-2-2-2-2----------|
G|-4--4-4--4-4-4--4-4-4-4-4-4-4-4-|--1--1-1--1-1-1--1-1-1-1-1-1-1-1----------|
D|-2--2-2--2-2-2--2-2-2-2-2-2-2-2-|--2--2-2--2-2-2--2-2-2-2-2-2-2-2----------|
A|-4--4-4--4-4-4--4-4-4-4-4-4-4-4-|--0--0-0--0-0-0--0-0-0-0-0-0-0-0----------|
E|-0--0-0--0-0-0--0-0-0-0-0-0-0-0-|--x--x-x--x-x-x--x-x-x-x-x-x-x-x----------|
      
        Lead
e|----------------------------------------------|----------------------------| The lead comes in after the 
B|----------------------------------------------|----------------------------| Emaj9 chord.
G|-16/18-18--18-18-18---18-18-18-18-18-18-18-18-|--13--13-13--13-13-13-------|
D|-x--x--x---x--x--x----x--x--x--x--x--x--x--x--|--x---x--x---x--x--x--------|
A|-14/16-16--16-16-16---16-16-16-16-16-16-16-16-|--11--11-11--11-11-11-------|
E|----------------------------------------------|----------------------------|
                                                                               
e|----------------------------------------------|----------------------------|
B|----------------------------------------------|----------------------------| 
G|-13-13-13-13-13-13-13-13-11/13-13--13-13-13---|-13-13-13-13-13-13-13-13-13-| 
D|-x--x--x--x--x--x--x--x---x--x-x---x--x--x----|-x--x--x--x--x--x--x--x--x--|   
A|-11-11-11-11-11-11-11-11--9/11-11--11-11-11---|-11-11-11-11-11-11-11-11-11-|
E|----------------------------------------------|----------------------------|

e|--------------------|------------------------------------------------------| 
B|--------------------|------------------------------------------------------| 
G|-11/13-13--13-13-13-|-13-13-13-13-13-13-13-13-13---------------------------|
D|-x--x--x---x--x--x--|-x--x--x--x--x--x--x--x--x----------------------------|
A|-9-/11-11--11-11-11-|-11-11-11-11-11-11-11-11-11---------------------------|
E|--------------------|------------------------------------------------------|
                                                                              
e|----------------------------------------------|----------------------------|  
B|----------------------------------------------|----------------------------| 
G|-16/18-18--18-18-18---18-18-18-18-18-18-18-18-|--13--13-13--13-13-13-------|
D|-x--x--x---x--x--x----x--x--x--x--x--x--x--x--|--x---x--x---x--x--x--------|
A|-14/16-16--16-16-16---16-16-16-16-16-16-16-16-|--11--11-11--11-11-11-------|
E|----------------------------------------------|----------------------------|

e|-------------------------|-------------------------------------------------|
B|-------------------------|-------------------------------------------------| 
G|-13-13-13-13-13-13-13-13-|-------------------------------------------------| 
D|-x--x--x--x--x--x--x--x--|-------------------------------------------------|   
A|-11-11-11-11-11-11-11-11-|-------------------------------------------------|
E|-------------------------|-------------------------------------------------|

[Verse]
        Lead
e|----0-------0--|-----0--------0--|-----0-------0--|-----0--------0---------| 
B|----7-------7--|-----5--------2--|-----7-------7--|-----5--------2---------| 
G|----8-------8--|-----4--------1--|-----8-------8--|-----4--------1---x2----| 
D|----6-------6--|---2-2------2-2--|-----6-------6--|---2-2------2-2---------| 
A|--7-7-----7-7--|--4--4-----0--0--|---7-7-----7-7--|--4--4-----0--0---------|
E|-0--0----0--0--|-----------------|--0--0----0--0--|------------------------|

[Pre-Chorus]
        Lead
e|--------------------|--------------------------|---------------------------|
B|--------------------|--------------------------|---------------------------|
G|--------------------|--------------------------|---------------------------|
D|------------9-------|---------------9----------|-----------9---------------|
A|-9h11-11-11---11-11-|-9h11-11-11-11---11-11-11-|-9h11-11-11---11-11-11-----|
E|--------------------|--------------------------|---------------------------|

e|--------------------------|------------------------------------------------|
B|--------------------------|------------------------------------------------|
G|--------------------------|------------------------------------------------|
D|---------------9----------|---------6---------------6----------------------|
A|-9h11-11-11-11---11-11-11-|-6h9-9-9---9-9-6h9-9-9-9---9-9-9----------------|
E|--------------------------|------------------------------------------------|

e|-----------------|---------------------------------------------------------|
B|-----------------|---------------------------------------------------------|
G|-----------------|---------------------------------------------------------|
D|---------4-------|-----------6---------------------------------------------|
A|-4h7-7-7---7-7-7-|-4h7-7-7-7---7-7-7---------------------------------------|
E|-----------------|---------------------------------------------------------|

        Rhythm                                                                           
e|----------------------------|----------------|-----------------------------| On the second time through  
B|-7--7--7--7--7--7--7--7--7--|-5--5--5--5--5--|-2--2--2--2--2---------------| strum the last chord going
G|--8--8--8--8--8--8--8--8--8-|--4--4--4--4--4-|--1--1--1--1--1-------x2-----| into the chorus
D|---6--6--6--6--6--6--6--6--6|---2--2--2--2--2|---2--2--2--2--2-------------|
A|----------------------------|----------------|-----------------------------|
E|----------------------------|----------------|-----------------------------|

[Chorus]
        Rhythm
e|-0--0-0--0-0-0--0-0-0-0-0-0-0-0-|-0-0--0-0-0--0-0-0-0-0-0-0-0--------------|
B|-7--7-7--7-7-7--7-7-7-7-7-7-7-7-|-7-7--7-7-7--7-7-7-7-7-7-7-7--------------|
G|-8--8-8--8-8-8--8-8-8-8-8-8-8-8-|-8-8--8-8-8--8-8-8-8-8-8-8-8--------------|
D|-6--6-6--6-6-6--6-6-6-6-6-6-6-6-|-6-6--6-6-6--6-6-6-6-6-6-6-6--------------|
A|-7--7-7--7-7-7--7-7-7-7-7-7-7-7-|-7-7--7-7-7--7-7-7-7-7-7-7-7--------------|
E|-0--0-0--0-0-0--0-0-0-0-0-0-0-0-|-0-0--0-0-0--0-0-0-0-0-0-0-0--------------|
                                                                               (Repeat 2x)
e|-x--x-x--x-x-x--x-x-x-x-x-x-x-x-|--0--0-0--0-0-0--0-0-0-0-0-0-0-0----------|
B|-5--5-5--5-5-5--5-5-5-5-5-5-5-5-|--2--2-2--2-2-2--2-2-2-2-2-2-2-2----------|
G|-4--4-4--4-4-4--4-4-4-4-4-4-4-4-|--1--1-1--1-1-1--1-1-1-1-1-1-1-1----------|
D|-2--2-2--2-2-2--2-2-2-2-2-2-2-2-|--2--2-2--2-2-2--2-2-2-2-2-2-2-2----------|
A|-4--4-4--4-4-4--4-4-4-4-4-4-4-4-|--0--0-0--0-0-0--0-0-0-0-0-0-0-0----------|
E|-0--0-0--0-0-0--0-0-0-0-0-0-0-0-|--x--x-x--x-x-x--x-x-x-x-x-x-x-x----------|
      
        Lead
e|----------------------------------------------|----------------------------| 
B|----------------------------------------------|----------------------------| 
G|-13-13-13--13-13-13---13-13-13-13-13-13-13-13-|--11/13-13--13-13-13--------|
D|-x--x--x---x--x--x----x--x--x--x--x--x--x--x--|--x--x--x---x--x--x---------|
A|-11-11-13--11-11-11---11-11-11-11-11-11-11-11-|--9-/11-11--11-11-11--------|
E|----------------------------------------------|----------------------------|
                                                                               (Repeat 2x) 
e|----------------------------------------------|----------------------------|
B|----------------------------------------------|----------------------------| 
G|-13-13-13-13-13-13-13-13--16/18-18--18-18-18--|-18-18-18-18-18-18-18-18-18-| 
D|-x--x--x--x--x--x--x--x----x--x--x---x--x--x--|-x--x--x--x--x--x--x--x--x--|  
A|-11-11-11-11-11-11-11-11--14/16-16--16-16-16--|-16-11-11-11-11-11-11-11-11-|
E|----------------------------------------------|----------------------------|

[Verse 2]
        Lead       
e|----------------------|----------------------------------------------------|
B|-------------12-------|----------------12----------------------12----------|
G|-11h13-13-13----13-13-|-11h13-13-13-13----13-13-13-11h13-13-13----13-13-13-|
D|----------------------|----------------------------------------------------|
A|----------------------|----------------------------------------------------|
E|----------------------|----------------------------------------------------|

e|---------------------------|-----------------------------------------------|
B|----------------12---------|-----------------------------------------------|
G|-11h13-13-13-13----13-13-13|------------11----------------------13---------|
D|---------------------------|11h14-14-14----14-14-11h14-14-14-14----14-14-14|
A|---------------------------|-----------------------------------------------|
E|---------------------------|-----------------------------------------------|

e|------------------|--------------------------------------------------------|
B|------------------|--------------------------------------------------------|
G|---------11-------|-----------11-------------------------------------------|
D|-9\7-7-7----7-7-7-|-9\7-7-7-7----7-7-7-------------------------------------|
A|------------------|--------------------------------------------------------|
E|------------------|--------------------------------------------------------|
        Rhythm
e|-0-------------------------------------------------------------------------| After the first time through 
B|-7-------------------------------------------------------------------------| the rhythm plays the Emaj9
G|-8-------------------------------------------------------------------------| once at the beginning of each
D|-6-------------------------------------------------------------------------| one.
A|-7-------------------------------------------------------------------------|
E|-0-------------------------------------------------------------------------|

[Chorus]
        Rhythm
e|-0--0-0--0-0-0--0-0-0-0-0-0-0-0-|-0-0--0-0-0--0-0-0-0-0-0-0-0--------------|
B|-7--7-7--7-7-7--7-7-7-7-7-7-7-7-|-7-7--7-7-7--7-7-7-7-7-7-7-7--------------|
G|-8--8-8--8-8-8--8-8-8-8-8-8-8-8-|-8-8--8-8-8--8-8-8-8-8-8-8-8--------------|
D|-6--6-6--6-6-6--6-6-6-6-6-6-6-6-|-6-6--6-6-6--6-6-6-6-6-6-6-6--------------|
A|-7--7-7--7-7-7--7-7-7-7-7-7-7-7-|-7-7--7-7-7--7-7-7-7-7-7-7-7--------------|
E|-0--0-0--0-0-0--0-0-0-0-0-0-0-0-|-0-0--0-0-0--0-0-0-0-0-0-0-0--------------|
                                                                               (Repeat 2x)
e|-x--x-x--x-x-x--x-x-x-x-x-x-x-x-|--0--0-0--0-0-0--0-0-0-0-0-0-0-0----------|
B|-5--5-5--5-5-5--5-5-5-5-5-5-5-5-|--2--2-2--2-2-2--2-2-2-2-2-2-2-2----------|
G|-4--4-4--4-4-4--4-4-4-4-4-4-4-4-|--1--1-1--1-1-1--1-1-1-1-1-1-1-1----------|
D|-2--2-2--2-2-2--2-2-2-2-2-2-2-2-|--2--2-2--2-2-2--2-2-2-2-2-2-2-2----------|
A|-4--4-4--4-4-4--4-4-4-4-4-4-4-4-|--0--0-0--0-0-0--0-0-0-0-0-0-0-0----------|
E|-0--0-0--0-0-0--0-0-0-0-0-0-0-0-|--x--x-x--x-x-x--x-x-x-x-x-x-x-x----------|
      
        Lead
e|----------------------------------------------|----------------------------| The lead comes in after the 
B|----------------------------------------------|----------------------------| Emaj9 chord.
G|-16/18-18--18-18-18---18-18-18-18-18-18-18-18-|--13--13-13--13-13-13-------|
D|-x--x--x---x--x--x----x--x--x--x--x--x--x--x--|--x---x--x---x--x--x--------|
A|-14/16-16--16-16-16---16-16-16-16-16-16-16-16-|--11--11-11--11-11-11-------|
E|----------------------------------------------|----------------------------|
                                                                               
e|----------------------------------------------|----------------------------|
B|----------------------------------------------|----------------------------| 
G|-13-13-13-13-13-13-13-13-11/13-13--13-13-13---|-13-13-13-13-13-13-13-13-13-| 
D|-x--x--x--x--x--x--x--x---x--x-x---x--x--x----|-x--x--x--x--x--x--x--x--x--|   
A|-11-11-11-11-11-11-11-11--9/11-11--11-11-11---|-11-11-11-11-11-11-11-11-11-|
E|----------------------------------------------|----------------------------|

e|--------------------|------------------------------------------------------| 
B|--------------------|------------------------------------------------------| 
G|-11/13-13--13-13-13-|-13-13-13-13-13-13-13-13-13---------------------------|
D|-x--x--x---x--x--x--|-x--x--x--x--x--x--x--x--x----------------------------|
A|-9-/11-11--11-11-11-|-11-11-11-11-11-11-11-11-11---------------------------|
E|--------------------|------------------------------------------------------|
                                                                              
e|----------------------------------------------|----------------------------|  
B|----------------------------------------------|----------------------------| 
G|-16/18-18--18-18-18---18-18-18-18-18-18-18-18-|--13--13-13--13-13-13-------|
D|-x--x--x---x--x--x----x--x--x--x--x--x--x--x--|--x---x--x---x--x--x--------|
A|-14/16-16--16-16-16---16-16-16-16-16-16-16-16-|--11--11-11--11-11-11-------|
E|----------------------------------------------|----------------------------|

e|-------------------------|-------------------------------------------------|
B|-------------------------|-------------------------------------------------| 
G|-13-13-13-13-13-13-13-13-|-------------------------------------------------| 
D|-x--x--x--x--x--x--x--x--|-------------------------------------------------|   
A|-11-11-11-11-11-11-11-11-|-------------------------------------------------|
E|-------------------------|-------------------------------------------------|

[Bridge]
        Lead
e|----------------------------------------|----------------------------------| I'm pretty sure the rhythm 
B|----------------------------------------|----------------------------------| plays the same as the lead.
G|---20/21\20-13--9-9-11-11-13-13-11-11---|-16-18-21-18-16-18-21-18----------|
D|---x--x--x--x---x-x--x--x--x--x--x--x-x2|-x--x--x--x--x--x--x--x-----------|
A|---18/19\18-11--7-7--9--9-11-11--9--9---|-14-16-19-16-14-16-19-16----------|
E|-0--------------------------------------|----------------------------------|

e|---------------------|-----------------------------------------------------|
B|---------------------|-----------------------------------------------------|
G|-13--13-13--13-13-13-|-13-13-13-13-13-13-13-13-----------------------------|
D|-x---x--x---x--x--x--|-x--x--x--x--x--x--x--x------------------------------|
A|-11--11-11--11-11-11-|-11-11-11-11-11-11-11-11-----------------------------|
E|---------------------|-----------------------------------------------------|

[Outro]
        Lead
e|--------------------------------|------------------------------------------| The lead either usesa octave
B|-9-12-9------9------------------|----9-------------------------------------| pedal or the rhythm plays 
G|--------9-11---11-9-------------|-11---11-9----9---------------------------| along.
D|--------------------11--9-9--x2-|-----------11---11-9-----------x2---------|
A|--------------------------------|---------------------12--11-11------------| (Repeat x5)
E|--------------------------------|------------------------------------------|   
        Lead and Rhythm
e|-----19------19------19------19------|-19-19-19-19-19-19-------------------| I dont know exactly how long
B|---17--17--17--17--17--17--17--18--18|-------------------------------------| this is played but the lead
G|-18------18------18------18------17--|-------------------------------------| and rhythm plays it in sync.
D|-------------------------------------|-------------------------------------|
A|-------------------------------------|-------------------------------------|
E|-------------------------------------|-------------------------------------|

************************************

| x   Dead note
| /   Slide up
| \   Slide down
| h   Hammer on

************************************

            
            
Suggest correction
Creating personal tab
Creating personal tab
You can edit any tab online and save it as your Personal.

You can edit, replace or remove any tab part or add personal notes – all changes will be seen only by you.

Personal tabs can be accessed anytime from any device, even offline.
Learn more »
Give kudos to tab author, rate the tab!
1 2 3 4 5
comments
print report bad tab
1 comment total.
0 reply
Yellow_Mordecai 20 Aug 04, 2017 09:40 AM

Nice tab bro! 5 stars.

guest
You may want to rate the tab now too:
select rating
Wanna post a correction for this tab? Suggest correction