Oops, an error
Loading. Please wait.

Way It Goes tab

version 1
version 1

Whole song

  • Tabbed by: 1600skate // This tab contains a chord ... Show more
2,407 views 156 this week
1 commentread comment
1 2 3 4 5
x 7
add to favorites
×
Save as Personal and add changes to this tab that will be seen only by you. Learn more ›
×
You can save this tab as Personal to edit and correct it or add notes. All changes will be seen only by you. Learn more »
launch autoscroll
font size
0
reset
how to read this tab
guitar tuner
edit
Autoscroll
slow
fast
+/-
esc
set tempo
stop
Author
Difficulty
About this tab version
Tabbed by: 1600skate // This tab contains a chord sheet with chords that fit behind the original song. There is a chord legend included as well as an explanation on how to simplify the chords further if needed. It also contains the tab for the whole song, transcribed from the studio recording: https://www.youtube.com/watch?v=n3TQKEUne5Q. Was this info helpful? Yes No
[Verse]
e|------------------------|------------------------|------------------------|--------------------------|
B|-7--7-7--7-7--7-7-9-7-7-|------------------------|------------------------|-2--2-2--2-2--2-2-2-2-2-7-|
G|-6--9-9--6-6--9-6-6-6-9-|-6-------6-6----6-9-6---|-4-------4-4----4-6-4---|-2--2-2--2-2--2-2-2-2-2-6-|
D|-7--7-7--7-7--7-7-7-7-7-|-6--9-9--6-6--9-6-6-6-9-|-4--7-7--4-4--7-4-4-4-7-|-2--2-2--2-2--2-2-2-2-2-7-| x2
A|-0--0-0--0-0--0-0-0-0-0-|-7--7-7--7-7--7-7-7-7-7-|-5--5-5--5-5--5-5-5-5-5-|------------------------0-|
E|------------------------|-0--0-0--0-0--0-0-0-0-0-|------------------------|--------------------------|

[Chorus]
e|-2-2-2-2-|-0-0-0-0-|-2-2-2-2-|-0-0-0-0-|
B|-2-2-2-2-|-2-2-2-2-|-2-2-2-2-|-2-2-0-0-|
G|-2-2-2-2-|-1-1-1-1-|-2-2-2-2-|-2-2-1-1-|
D|-0-0-0-0-|-2-2-2-2-|-0-0-0-0-|-2-2-2-2-|
A|---------|-0-0-0-0-|---------|-0-0-2-2-|
E|---------|---------|---------|-----0-0-|

//Strum these chords to fit the song 
//Changes signified by the bar lengths shown (each chord is a crotchet)

[Bridge]
e|-2-|-0-|-2-|-0-|
B|-2-|-2-|-2-|-2-|
G|-2-|-1-|-2-|-1-|
D|-0-|-2-|-0-|-2-| x2
A|---|-0-|---|-0-|
E|---|---|---|---|

//Strum one chord per bar
//These are the chords that fit behind the bridge, yet they are sang instead.  

[Solo - use a bottleneck slide]
e|---------------------|------------------|----------------------|----------|
B|-12/14---12/14/17\14-|--\12---10/12-\10-|-/12--\10-------------|----------|
G|---------------------|------------------|------------11/14-\11-|-/14------|
D|---------------------|------------------|----------------------|----------| x2
A|---------------------|------------------|----------------------|----------|
E|---------------------|------------------|----------------------|----------|

//For a simplified version, use the chord sheet below. 
//Any of the 6th or maj7 chords can be replaced with their corresponding major chord if wished.
//For example, Dmaj7 can be replaced with D . 

{Verse 1]
   A6                                   E6      
Wisconsin pines, collaborating with the day glow vibes
                       D6
An altruistic breed of travel guide
                                  A
It's chill, but lord knows you're trying
A6                           
Zombie kids love to hear that easy
E6
   Going shit, grab a guitar and
     D6
Just moaning shit, it's cool
                      A
But Lord knows you're trying

[Chorus]
Dmaj7                    Amaj7
      That's the way it goes
                   Dmaj7
That's the way it goes
              A     E
It's so satisfying

[Verse 2]
             A6
You put your records on
                   E6
Exclusively the old Pavement ones
                    D6
A 90's soul with Doc Martens on
                          A
A step, a step away from crying
                                   E6
Degenerate, counter-culture, crying socialist
                      D6
Hip-to-lazed crazed abstractionists
                                  A
We're weird, but Lord knows we're trying

[Chorus]
Dmaj7                    Amaj7
      That's the way it goes
                   Dmaj7
That's the way it goes
              A     
It's so satisfying
 Dmaj7
Yeah
                   Amaj7
That's the way it goes
                   Dmaj7
That's the way it goes
                   A        E
One step away from crying

[Solo]
A6 , E6 , D6 , A , A6 , E6 , D6, A

[Bridge] 
Dmaj7                   Amaj7
      That's the way it goes
                   Dmaj7    Amaj7
That's the way it goes
Dmaj7                       Amaj7
Yeah-eh-eh thats the way it goes
                  Dmaj7     Amaj7
That's the way it goes

[Chorus]
Dmaj7                    Amaj7
      That's the way it goes
                   Dmaj7
That's the way it goes
              A     
It's so satisfying
 Dmaj7
Yeah
                   Amaj7
That's the way it goes
                   Dmaj7
That's the way it goes
                   A        E
One step away from crying

[Outro {verse progression}]
A6 , E6 , D6 , A , A6 , E6 , D6, A

*****************************************************

  A6      E6      D6      A       Dmaj7   Amaj7   E  
e|-2---------------2-------0-------2-------0-------0-|
B|-2-------2-------0-------2-------2-------2-------0-|
G|-2-------1-------2-------2-------2-------1-------1-|
D|-2-------2-------0-------2-------0-------2-------2-|
A|-0-------2---------------0---------------0-------2-|
E|-------------------------------------------------0-|

*****************************************************

/ = slide up

\ = slide down

*****************************************************

            
            
Suggest correction
Creating personal tab
Creating personal tab
You can edit any tab online and save it as your Personal.

You can edit, replace or remove any tab part or add personal notes – all changes will be seen only by you.

Personal tabs can be accessed anytime from any device, even offline.
Learn more »
comments
print report bad tab
1 comment total.
+1 reply
kmart0032 10 Jul 29, 2017 01:22 PM

what is the second chord used in the chorus?

guest
You may want to rate the tab now too:
select rating
Wanna post a correction for this tab? Suggest correction