Oops, an error
Loading. Please wait.

Western Kids tab

2,212 views 36 this week
1 commentread comment
1 2 3 4 5
x 6
add to favorites
×
Save as Personal and add changes to this tab that will be seen only by you. Learn more ›
×
You can save this tab as Personal to edit and correct it or add notes. All changes will be seen only by you. Learn more »
launch autoscroll
font size
0
reset
how to read this tab
guitar tuner
edit
Autoscroll
slow
fast
+/-
esc
set tempo
stop
Author
Difficulty
About this tab version
Stitches often plays the synth section differently in position wise , following the A# pentatonic major scale. Was this info helpful? Yes No
Song: Western Kids
Artist: Hippocampus
Album: Landmark
Version: Landmark Studio
This tab is for stiches lead guitar aswell as the synth sections
Turtans chords are outlined above the tab sections and are very simple.
Both the lead and rhythm both play a scratching rythm between notes/chords
but with it being the lead it can be tricky. It can still played without scratching at all

Tuning: Standard:

[Verse 1]
(drums and vocals start , guitarists delay after)
    ''see    how      the ......
                          |A#
e|-------------------------------------------------------------------------|
B|-------------------------------------------------------------------------|
G|----------------------------x--x--x--x------x--x--x--x---------x--x--x--x|
D|-------------------5----3---x--x--x--x--5---x--x--x--x---5--3--x--x--x--x|
A|----------------------------x--x--x--x------x--x--x--x---------x--x--x--x|
E|----------------------------x--x--x--x------x--x--x--x---------x--x--x--x|

 |D#
e|-------------------------------------------------------------------------|
B|-------------------------3-----------------------------------------------|
G|--5----x--x--x--x---5-------x--x--x--x--5---x--x--x--x---5---3-x--x--x--x|
D|-------x--x--x--x-----------x--x--x--x------x--x--x--x---------x--x--x--x|
A|-------x--x--x--x-----------x--x--x--x------x--x--x--x---------x--x--x--x|
E|-------x--x--x--x-----------x--x--x--x------x--x--x--x---------x--x--x--x|

 |A#
e|-------------------------------------------------------------------------|
B|-------------------------------------------------------------------------|
G|-------x--x--x--x-----------x--x--x--x------x--x--x--x---------x--x--x--x|
D|--5----x--x--x--x---5---3---x--x--x--x--5---x--x--x--x---5--3--x--x--x--x|
A|-------x--x--x--x-----------x--x--x--x------x--x--x--x---------x--x--x--x|
E|-------x--x--x--x-----------x--x--x--x------x--x--x--x---------x--x--x--x|


 |D#
e|-------------------------------------------------------------------------|
B|-------------------------3-----------------------------------------------|
G|--5----x--x--x--x---5-------x--x--x--x--5---x--x--x--x---5---3-x--x--x--x|
D|-------x--x--x--x-----------x--x--x--x------x--x--x--x---------x--x--x--x|
A|-------x--x--x--x-----------x--x--x--x------x--x--x--x---------x--x--x--x|
E|-------x--x--x--x-----------x--x--x--x------x--x--x--x---------x--x--x--x|


''the northern girlsssss they play the parrrttt''
 |A#                                    [GROOVY SYTHN]
e|-------------------------------------------------------------------------------|
B|-------------------------------------------------------------------------------|
G|-------x--x--x--x-----------x--x--x--x-------------3--------------3------------|
D|--5----x--x--x--x---5---3---x--x--x--x-------3--5-----------3--5---------------|
A|-------x--x--x--x-----------x--x--x--x---5--------------5-------------5--5--3--|
E|-------x--x--x--x-----------x--x--x--x-----------------------------------------|

 |D#
e|-------------------------------------------------------------------------------|
B|------------------------3-------------------------3---------------3------------|
G|--5----x--x--x--x--5--------x--x--x--x------3--5------------3--5------------3--|
D|-------x--x--x--x-----------x--x--x--x---5--------------5-------------5--5-----|
A|-------x--x--x--x-----------x--x--x--x-----------------------------------------|
E|-------x--x--x--x-----------x--x--x--x-----------------------------------------|

 |A#
e|-------------------------------------------------------------------------------|
B|-------------------------------------------------------------------------------|
G|-------x--x--x--x-----------x--x--x--x-------------3--------------3------------|
D|--5----x--x--x--x---5---3---x--x--x--x-------3--5-----------3--5---------------|
A|-------x--x--x--x-----------x--x--x--x---5--------------5-------------5--5--3--|
E|-------x--x--x--x-----------x--x--x--x-----------------------------------------|

 |D#
e|-------------------------------------------------------------------------------|
B|------------------------3-------------------------3---------------3------------|
G|--5----x--x--x--x--5--------x--x--x--x------3--5------------3--5------------3--|
D|-------x--x--x--x-----------x--x--x--x---5--------------5-------------5--5-----|
A|-------x--x--x--x-----------x--x--x--x-----------------------------------------|
E|-------x--x--x--x-----------x--x--x--x-----------------------------------------|

[Chorus 1 part 1]
'' I        just     love     this....''
 |G#min      F        Eb6
e|-10---------8----------8----10--x--x--x--x--8----10--x--x--x--x--8----10--x--x--x--x--|
B|-11---------10---------8---(8)--x--x--x--x--8---(8)--x--x--x--x--8---(8)--x--x--x--x--|
G|-12---------10---------8---(8)--x--x--x--x--8---(8)--x--x--x--x--8---(8)--x--x--x--x--|
D|-12---------10---------8---(8)--x--x--x--x--8---(8)--x--x--x--x--8---(8)--x--x--x--x--|
A|-10---------8----------6---(6)--x--x--x--x--6---(6)--x--x--x--x--6---(6)--x--x--x--x--|
E|--------------------------------------------------------------------------------------|

|G#min      F        Eb6
e|-10---------8----------8----10--x--x--x--x--8----10--x--x--x--x--8----10--x--x--x--x--|
B|-11---------10---------8---(8)--x--x--x--x--8---(8)--x--x--x--x--8---(8)--x--x--x--x--|
G|-12---------10---------8---(8)--x--x--x--x--8---(8)--x--x--x--x--8---(8)--x--x--x--x--|
D|-12---------10---------8---(8)--x--x--x--x--8---(8)--x--x--x--x--8---(8)--x--x--x--x--|
A|-10---------8----------6---(6)--x--x--x--x--6---(6)--x--x--x--x--6---(6)--x--x--x--x--|
E|--------------------------------------------------------------------------------------|


 |G#min      F        Eb6
e|-10---x--x--8----x--x--8----10--x--x--x--x--8----10--x--x--x--x--8----10--x--x--x--x--|
B|-11---x--x--10---x--x--8---(8)--x--x--x--x--8---(8)--x--x--x--x--8---(8)--x--x--x--x--|
G|-12---x--x--10---x--x--8---(8)--x--x--x--x--8---(8)--x--x--x--x--8---(8)--x--x--x--x--|
D|-12---x--x--10---x--x--8---(8)--x--x--x--x--8---(8)--x--x--x--x--8---(8)--x--x--x--x--|
A|-10---x--x--8----x--x--6---(6)--x--x--x--x--6---(6)--x--x--x--x--6---(6)--x--x--x--x--|
E|--------------------------------------------------------------------------------------|


 ''the   age   of  excess ''
     ''Cmin''            A#            ''Cmin)''            A#
e|--8---10----8---10-----6----6---x--x---8---10----8---10----6--6--x--x----|
B|--8--(8)---(8)--(8)----6----6---x--x---8--(8)---(8)--(8)---6--6--x--x----|
G|--8--(8)---(8)--(8)----7----7---x--x---8--(8)---(8)--(8)---7--7--x--x----|
D|--8--(8)---(8)--(8)----8----8---x--x---8--(8)---(8)--(8)---8--8--x--x----|
A|--6--(6)---(6)--(6)----8----8---x--x---6--(6)---(6)--(6)---8--8--x--x----|
E|-----------------------6----6---x--x-----------------------6--6--x--x----|

[Chorus part 2]
'' I        just     love     this....''      la  la  la  laaa la   laaaaa
 |G#min      F        Eb6
e|-10--x--x---8---x--x---8----10--x--x--x--x------6---8---10---8-----------x--x---------|
B|-11--x--x---10--x--x---8---(8)--x--x--x--x--8---------------------8--8---x--x---------|
G|-12--x--x---10--x--x---8---(8)--x--x--x--x------------------------8--8---x--x---------|
D|-12--x--x---10--x--x---8---(8)--x--x--x--x------------------------8--8---x--x---------|
A|-10--x--x---8---x--x---6---(6)--x--x--x--x------------------------6--6---x--x---------|
E|--------------------------------------------------------------------------------------|

'' I        just     love     this....''      la  la  la  LAAA La   laaaaa
 |G#min      F        Eb6
e|-10--x--x---8---x--x---8----10--x--x--x--x------6---8---13---10---8--8---x--x---------|
B|-11--x--x---10--x--x---8---(8)--x--x--x--x--8---------------------8--8---x--x---------|
G|-12--x--x---10--x--x---8---(8)--x--x--x--x------------------------8--8---x--x---------|
D|-12--x--x---10--x--x---8---(8)--x--x--x--x------------------------8--8---x--x---------|
A|-10--x--x---8---x--x---6---(6)--x--x--x--x------------------------6--6---x--x---------|
E|--------------------------------------------------------------------------------------|

 |G#min      F        Eb6
e|-10--x--x---8---x--x---8----10--x--x--x--x------6---8---10---8-----------x--x---------|
B|-11--x--x---10--x--x---8---(8)--x--x--x--x--8---------------------8--8---x--x---------|
G|-12--x--x---10--x--x---8---(8)--x--x--x--x------------------------8--8---x--x---------|
D|-12--x--x---10--x--x---8---(8)--x--x--x--x------------------------8--8---x--x---------|
A|-10--x--x---8---x--x---6---(6)--x--x--x--x------------------------6--6---x--x---------|
E|--------------------------------------------------------------------------------------|

     (Cmin)               A#             (Cmin)                A#
e|--8---10----8---10-----6----6---x--x---8---10----8---10----6---6---6-------|
B|--8--(8)---(8)--(8)----6----6---x--x---8--(8)---(8)--(8)---6---6---6-------|
G|--8--(8)---(8)--(8)----7----7---x--x---8--(8)---(8)--(8)---7---7---7-------|
D|--8--(8)---(8)--(8)----8----8---x--x---8--(8)---(8)--(8)---8---8---8-------|
A|--6--(6)---(6)--(6)----8----8---x--x---6--(6)---(6)--(6)---8---8---8-------|
E|-----------------------6----6---x--x-----------------------6---6---6-------|

[Verse 2]
 ''the mid-western plains were called..''
    Gmin                        D#maj7
e|----3---------------------------6----------------------------|
B|----3---------------------------8----------------------------|
G|----3---------------------------7----------------------------|
D|----5---------------------------8----------------------------|
A|----5---------------------------6----------------------------|
E|----3--------------------------------------------------------|

     A#                   D#maj7
e|----6---------------------6----------------------------------|
B|----6---------------------8----------------------------------|
G|----7---------------------7----------------------------------|
D|----8---------------------8----------------------------------|
A|----8---------------------6----------------------------------|
E|----6--------------------------------------------------------|

 ''the silloutes they play the part....''
e|--------------------------------------------------------------------|
B|--------------------------------------------------------------------|
G|--------12--12--12---12--12--7--7--------7--7--7---7--7--7--7-------|
D|--------------------------------------------------------------------|
A|--------------------------------------------------------------------|
E|--------------------------------------------------------------------|

e|--------------------------------------------------------------------|
B|--------------------------------------------------------------------|
G|--------12--12--12---12--12--12--12-----12--12--12---12--12--12--12--|
D|--------------------------------------------------------------------|
A|--------------------------------------------------------------------|
E|--------------------------------------------------------------------|

e|--------------------------------------------------------------------|
B|--------------------------------------------------------------------|
G|--------------------------------------------------------------------|
D|--------12--12--12--12--12--12--12-----12--12--12--12--12-12-12-12--|
A|--------------------------------------------------------------------|
E|--------------------------------------------------------------------|

e|--------------------------------------------------------------------|
B|--------------------------------------------------------------------|
G|-------12--12--12---12--12--12--12-----12--12--12---12--12--12--12--|
D|--------------------------------------------------------------------|
A|--------------------------------------------------------------------|
E|--------------------------------------------------------------------|




[Chorus 2]
REPEAT OF CHORUS 1 , BUT PLAY THE FIRST BAR LIKE THIS(MISSES OUT THE FIRST 2 CHORDS):
'' I        just     love     this....''
 |                    Eb6
e|-----------------------8----10--x--x--x--x--8----10--x--x--x--x--8----10--x--x--x--x--|
B|-----------------------8---(8)--x--x--x--x--8---(8)--x--x--x--x--8---(8)--x--x--x--x--|
G|-----------------------8---(8)--x--x--x--x--8---(8)--x--x--x--x--8---(8)--x--x--x--x--|
D|-----------------------8---(8)--x--x--x--x--8---(8)--x--x--x--x--8---(8)--x--x--x--x--|
A|-----------------------6---(6)--x--x--x--x--6---(6)--x--x--x--x--6---(6)--x--x--x--x--|
E|--------------------------------------------------------------------------------------|
(then play rest of chorus 1 again)


[End Section]
(extended synth melody):
(stitches plays this section differently live sometimes , both notes and position , but it
follows the same riff)

e|--------------------------------------------------------------------------------------|
B|-----------------------------------------------------------------------------3--------|
G|------------3-------------3--------------------3-----------3-----------3--5-----5--3--|
D|------3--5----------3--5-----------------3--5--------3--5-----------5-----------------|
A|---5-------------5------------5---5---5-----------5-----------5-----------------------|
E|--------------------------------------------------------------------------------------|


e|--------------------------------------------------------------------------------------|
B|------------3-------------3--------------------3-----------3-----------3--6--3--------|
G|------3--5----------3--5-----------------3--5--------3--5-----------5-----------5--3--|
D|---5-------------5------------5---5---5-----------5-----------5-----------------------|
A|--------------------------------------------------------------------------------------|
E|--------------------------------------------------------------------------------------|


e|--------------------------------------------------------------------------------------|
B|-----------------------------------------------------------------------------3--------|
G|------------3-------------3--------------------3-----------3-----------3--5-----5--3--|
D|------3--5----------3--5-----------------3--5--------3--5-----------5-----------------|
A|---5-------------5------------5---5---5-----------5-----------5-----------------------|
E|--------------------------------------------------------------------------------------|


e|--------------------------------------------------------------------------------------|
B|------------3-------------3--------------------3-----------3-----------3--6--3--------|
G|------3--5----------3--5-----------------3--5--------3--5-----------5-----------5--3--|
D|---5-------------5------------5---5---5-----------5-----------5-----------------------|
A|--------------------------------------------------------------------------------------|
E|--------------------------------------------------------------------------------------|

************************************

| x    Dead note
| (n)  Ghost note


************************************

            
            
Suggest correction
Creating personal tab
Creating personal tab
You can edit any tab online and save it as your Personal.

You can edit, replace or remove any tab part or add personal notes – all changes will be seen only by you.

Personal tabs can be accessed anytime from any device, even offline.
Learn more »
comments
print report bad tab
1 comment total.
0 reply
eatmyuke 33 Jun 02, 2017 07:44 AM

nice work man :)

guest
You may want to rate the tab now too:
select rating
Wanna post a correction for this tab? Suggest correction