Oops, an error
Loading. Please wait.

Before My Body Is Dry tab

691 views 18 this week
1 commentread comment
1 2 3 4 5
2 more votes to show rating
add to favorites
×
Save as Personal and add changes to this tab that will be seen only by you. Learn more ›
×
You can save this tab as Personal to edit and correct it or add notes. All changes will be seen only by you. Learn more »
launch autoscroll
font size
0
reset
how to read this tab
guitar tuner
edit
Autoscroll
slow
fast
+/-
esc
set tempo
stop
(Half step down tuning)

[Intro] 0:00 - 0:16

Guitar 1
0:00 - 0:16
e|--------------------|
B|-5-7-----3----------|
G|-----4-----4--------|
D|-------7------------|
A|--------------------|
E|--------------------|     x8, for the 8th time/last time, it adds on a B3 note and stops there 

Guitar 2 
8x chords
0:00                      0:02
e|--------------------|  e|--------------------|
B|--------------------|  B|--------------------|
G|--------------------|  G|---------5----------|
D|--------2-----------|  D|---------5----------|
A|--------2-----------|  A|---------3----------|
E|--------0-----------|  E|--------------------|

0:04                      0:06
e|--------------------|  e|--------------------|
B|--------------------|  B|--------------------|
G|--------------------|  G|--------------------|
D|--------7-----------|  D|---------9----------|
A|--------7-----------|  A|---------9----------|
E|--------5-----------|  E|---------7----------|

0:08                      0:10
e|--------------------|  e|--------------------|
B|--------------------|  B|--------------------|
G|--------------------|  G|---------5----------|
D|---------2----------|  D|---------5----------|
A|---------2----------|  A|---------3----------|
E|---------0----------|  E|--------------------|

0:12                      0:14
e|--------------------|  e|--------------------|
B|--------------------|  B|--------------------|
G|---------7----------|  G|--------------------|
D|---------7----------|  D|---------9----------|
A|---------5----------|  A|---------9----------|
E|--------------------|  E|---------7----------|

Silence/Rest 
0:16 - 0:34

Bass Guitar plays - 0:34
Guitar 1 (acoustic)
0:35
e|--------------------|
B|------------5--7----|
G|-4-4-4---4----------|
D|--------------------|
A|--------------------|
E|--------------------|

-Guitar 1 stops playing at 0:50 until 1:07 (Chorus)

Guitar 2
e|--------------------|
B|--------------------|
G|--------------------|
D|--------------------|
A|--------------------|
E|--------------------| Guitar 2 does not play, rest the entire section 

[Chorus] 1:05 - 1:38? 

Guitar 1 
Seems to just repeat, I assume it's the same repeating notes 
seeing that the chords for the chorus match with the repeating 
section 
1:06 
e|--------------------|
B|-5-7-----3----------|
G|-----4-----4--------|
D|-------7------------|
A|--------------------|
E|--------------------| x16?

Guitar 2 
1:07                     1:09
e|--------------------|  e|--------------------|
B|--------------------|  B|--------------------|
G|--------------------|  G|---------5----------|
D|---------2----------|  D|---------5----------|
A|---------2----------|  A|---------3----------|
E|---------0----------|  E|--------------------|

1:11                     1:13
e|--------------------|  e|--------------------|
B|--------------------|  B|--------------------|
G|--------------------|  G|--------------------|
D|--------7-----------|  D|---------9----------|
A|--------7-----------|  A|---------9----------|
E|--------5-----------|  E|---------7----------| 

1:15                     1:17
e|--------------------|  e|--------------------|
B|--------------------|  B|--------------------|
G|--------------------|  G|---------5----------|
D|---------2----------|  D|---------5----------|
A|---------2----------|  A|---------3----------|
E|---------0----------|  E|--------------------| 

1:19                     1:21
e|--------------------|  e|--------------------|
B|--------------------|  B|--------------------|
G|---------7----------|  G|--------------------|
D|---------7----------|  D|---------9----------|
A|---------5----------|  A|---------9----------|
E|--------------------|  E|---------7----------| 

1:23                     1:25
e|--------------------|  e|--------------------|
B|--------------------|  B|--------------------|
G|---------5----------|  G|---------7----------|
D|---------5----------|  D|---------7----------|
A|---------3----------|  A|---------5----------|
E|--------------------|  E|--------------------| 

1:27                     1:29
e|--------------------|  e|--------------------|
B|--------------------|  B|--------------------|
G|---------2----------|  G|--------------------|
D|---------2----------|  D|---------5----------|
A|---------0----------|  A|---------5----------|
E|--------------------|  E|---------3----------| 

1:31                     1:33
e|--------------------|  e|--------------------|
B|--------------------|  B|--------------------|
G|---------5----------|  G|---------7----------|
D|---------5----------|  D|---------7----------|
A|---------3----------|  A|---------5----------|
E|--------------------|  E|--------------------| 

1:35                     1:37
e|--------------------|  e|--------------------|
B|--------------------|  B|--------------------|
G|---------2----------|  G|--------------------|
D|---------2----------|  D|---------2----------|
A|---------0----------|  A|---------2----------|
E|--------------------|  E|---------0----------| 

Repeat Section
1:39 - 1:55
Guitar 1 
e|--------------------|
B|-5-7-----3----------|
G|-----4-----4--------|
D|-------7------------|
A|--------------------|
E|--------------------| x8, for the 8th time/last time, it adds on a B3 note and stops there 

Guitar 2 
e|--------------------|
B|--------------------|
G|--------------------|
D|--------------------|
A|--------------------|
E|--------------------| Guitar 2 does not play, rest the entire section 

Rap Section 1
1:55 - 2:26

After Rap Section 1
2:27 - 2:44 

Rap Section 2
2:45 - 2:59

After Rap Section 2
2:59 - 3:14 
Guitar 1(clean/non distorted)
3:02
e|----12----10--------|
B|-12----12-----------|
G|--------------------|
D|--------------------|
A|--------------------|
E|--------------------|

3:06
e|----10----12--------|
B|-12----12-----------|
G|--------------------|
D|--------------------|
A|--------------------|
E|--------------------|

(it repeats)

3:09
e|----12----10--------|
B|-12----12-----------|
G|--------------------|
D|--------------------|
A|--------------------|
E|--------------------|

3:13
e|----10----12--------|
B|-12----12-----------|
G|--------------------|
D|--------------------|
A|--------------------|
E|--------------------|

Guitar 2
e|--------------------|
B|--------------------|
G|--------------------|
D|--------------------|
A|--------------------|
E|--------------------| - Guitar 2 does not play, rest the entire section 

[Chorus] 
3:15 - 3:49 

Repeat Section
3:49 - End 
Guitar 1
e|--------------------|
B|-5-7-----3----------|
G|-----4-----4--------|
D|-------7------------|
A|--------------------|
E|--------------------| x8, for the 8th time/last time, it adds on a B3 note and stops there 

Guitar 2 
3:49                      3:51
e|--------------------|  e|--------------------|
B|--------------------|  B|--------------------|
G|--------------------|  G|---------5----------|
D|--------2-----------|  D|---------5----------|
A|--------2-----------|  A|---------3----------|
E|--------0-----------|  E|--------------------|

3:53                      3:55
e|--------------------|  e|--------------------|
B|--------------------|  B|--------------------|
G|--------------------|  G|--------------------|
D|--------7-----------|  D|---------9----------|
A|--------7-----------|  A|---------9----------|
E|--------5-----------|  E|---------7----------|

3:57                      3:58
e|--------------------|  e|--------------------|
B|--------------------|  B|--------------------|
G|--------------------|  G|---------5----------|
D|---------2----------|  D|---------5----------|
A|---------2----------|  A|---------3----------|
E|---------0----------|  E|--------------------|

4:00                      4:03
e|--------------------|  e|--------------------|
B|--------------------|  B|--------------------|
G|---------7----------|  G|--------------------|
D|---------7----------|  D|---------9----------|
A|---------5----------|  A|---------9----------|
E|--------------------|  E|---------7----------|

[End]
Suggest correction
Creating personal tab
Creating personal tab
You can edit any tab online and save it as your Personal.

You can edit, replace or remove any tab part or add personal notes – all changes will be seen only by you.

Personal tabs can be accessed anytime from any device, even offline.
Learn more »
Give kudos to tab author, rate the tab!
1 2 3 4 5
comments
print report bad tab
1 comment total.
0 reply
ray1235 10 May 16, 2017 08:17 PM, edited on May 17 2017, 12:17 am

Great and accurate tab!

guest
You may want to rate the tab now too:
select rating
Wanna post a correction for this tab? Suggest correction