Oops, an error
Loading. Please wait.

Call Your Name Chords

235 views 24 this week
1 commentread comment
1 2 3 4 5
2 more votes to show rating
add to favorites
launch autoscroll
font size
0
reset
transpose
0
reset
simplify chords
display chords
guitar tuner
Autoscroll
slow
fast
+/-
esc
set tempo
stop
Help us to improve Ultimate-Guitar.com Take our survey!
×
Author
Difficulty
advanced
About this tab version
Referenced from a couple of MIDI and Piano versions of the song. Was this info helpful? Yes No
Tuning: Standard - EADGBE
Capo: 0

[Chords]

I'll only list the hard ones.

F#m         : 2 4 4 2 2 2
F#m/C#      : x 4 4 2 2 2
DM7         : x x 0 2 2 2
DM7/E       : x x 2 2 2 2
DM7/E (alt) : x 0 2 2 2 2 (you can do this for a more "fuller" sound)
A6/C#       : x 4 x 2 2 2
Bm          : x 2 4 4 3 2
B7sus2      : x 2 x 2 2 2
D/A         : x 0 4 2 3 2 (D sounds okay)
Em/G        : 3 2 2 0 0 0 (Em sounds fine too)

[Intro]

e|-4--4--4--4--4--4--4--4--|
B|-3--3--3--3--2--2--2--2--|
G|-------------------------|
D|-------------------------|
A|-------------------------|
E|-------------------------|

e|-4--4--4--4--4--4--4--4--|
B|-3--3--3--3--2--2--2--2--|
G|-------------------------|
D|-------------------------|
A|-------------------------|
E|-------------------------|


[Verse 1]

e|-4--4--4--4--4--4--4--4--|
B|-3--3--3--3--2--2--2--2--|
G|-------------------------|
D|-------------------------|
A|-------------------------|
E|-------------------------|

She lost her brother a month ago

e|-4--4--4--4--4--4--4--4--|
B|-3--3--3--3--2--2--2--2--|
G|-------------------------|
D|-------------------------|
A|-------------------------|
E|-------------------------|

His picture on the wall
And it reminds me

e|-4--4--4--4--4--4--4--4--|
B|-3--3--3--3--2--2--2--2--|
G|-------------------------|
D|-0-----------L-----------|
A|-------------4--------L--|
E|-------------------------|

When she brings me coffee her smile

e|-4--4--4--4--4--4--4--4--|
B|-3--3--3--3--2--2--2--2--|
G|-------------------------|
D|-0-----L--2--------------|
A|-------------4--------L--|
E|-------------------------|

I wish I could be with her until my last day


[Verse 2]

DM7                            F#m
She said she gave all her love to me
   DM7
We dreamt a new life
           F#m/C#
Some place to be at peace
DM7                DM7/E    F#m
But things changed suddenly
          DM7              A6/C#  B7sus2
I lost my dreams in this disaster


[Chorus]

    Bm
I'm crying
             D/A
Missing my lover
                 Em/G
I don't have the power
F#m
On my side forever
Bm                D
Oh, where is my lover
             Em/G
And I got no power
F#m                    Em/G
I'm standing alone. No way
Bm                   Em/G
    Calling out your name
Bm


[Interlude]

e|-4--4--4--4--4--4--4--4--|
B|-3--3--3--3--2--2--2--2--|
G|-------------------------|
D|-0-----------L-----------|
A|-------------4--------L--|
E|-------------------------|

e|-4--4--4--4--4--4--4--4--|
B|-3--3--3--3--2--2--2--2--|
G|-------------------------|
D|-0--------L--4--------L--|
A|-------------------------|
E|-------------------------|


[Verse 3]

DM7                       F#m
I said I gave all my love to you
   DM7
We dreamt a new house
           F#m/C#
Some place to be at peace
DM7                DM7/E    F#m
But things changed suddenly
          DM7              A6/C#  B7sus2
I lost my dreams in this disaster


[Bridge]

         Em/G         A         Bm
We don't know what is wrong tonight
     Em/G          A        Bm
Everybody's got no place to hide
         Em/G                A         Bm
No one's left and there's no one to go on
     Em/G         A        Bm
All I know is my life is gone


[Solo]

Em/G     F#m
Em/G     Bm


[Chorus]

    Bm
I'm crying
             D/A
Missing my lover
                 Em/G
I don't have the power
F#m
On my side forever
Bm                D
Oh, where is my lover
             Em/G
And I got no power
F#m                    Em/G
I'm standing alone. No way
Bm                   Em/G
    Calling out your name
Bm


[Outro]

e|-2--2--2--2--2--2--2--2--|
B|-0--0--0--0--0--0--0--0--|
G|-0--0--0--0--------------|
D|-------------4--4--4--4--|
A|-------------------------|
E|-------------------------|

e|-2--2--2--2--2--2--2--2--|
B|-0--0--0--0--0--0--0--0--|
G|-0--0--0--0--------------|
D|-------------4--4--4--4--|
A|-------------------------|
E|-------------------------|

Em/G     Bm
Em/G     F#m
Suggest correction
Give kudos to tab author, rate the tab!
1 2 3 4 5
comments
print report bad tab
1 comment total.
+1 reply
wwwsimulja 10 Oct 18, 2016 09:45 PM

Nice work. :)

guest
You may want to rate the tab now too:
select rating
Wanna post a correction for this tab? Suggest correction