Oops, an error
Loading. Please wait.

Cry Your Eyes Out Tab

version 2
version 2

Whole song

474 views 1 this week
no commentswrite comment
1 2 3 4 5
3 more votes to show rating
add to favorites
launch autoscroll
font size
0
reset
how to read this tab
guitar tuner
Autoscroll
slow
fast
+/-
esc
set tempo
stop
Help us to improve Ultimate-Guitar.com Take our survey!
×
Difficulty
Tuning
novice
D A D G B E
k so i read version 1 of this song and i found some mistakes. figured them out on my own
and this is what i interpret the song to be played as. i dont know the lead parts.
forgive me. version one does so refer to that tab. this is more or less the rythym
guitar in the song. the interlude is a tad complicated. not the tab itself but how its
played. the
first set is played with plam mutes. after each group of notes mute all six strings. the
second set is played with palm mutes but instead of muting after each set let them ring
while still palm muting. the third set is played with palm mutes again but instead of 
letting them ring while still palm muting play the last note in each set without a palm mute
and let the note ring. it helps if you know the song by heart/have it on hand to listen
to. please rate & comment. enjoy.

/ is a slide WITHOUT strumming a second time. for instance if you were to play the fifth
fret and slide off it would look like this--> 5/0 OR if you were to play at the ninth
and slide to the fifth it would look like this--> 9/5
. is the usual palm mute. used while strumming.
x is a mute. used after you strum the note to stop all strings.


Intro
E|----------------------------------------|
B|----------------------------------------|
G|---------------------------------6/7/9/7|
D|12/0-0-9-7-5-0x-00x-000-9-7-5-00-6/7/9/7|
A|12/0-0-9-7-5-0x-00x-000-9-7-5-00-4/5/7/5|
D|12/0-0-9-7-5-0x-00x-000-9-7-5-00--------|
                                ..
E|-------------------------|
B|-------------------------|
G|-------------------------|
D|5-9-7-55x-55x-555-9-7-55x|
A|5-9-7-55x-55x-555-9-7-55x|
D|5-9-7-55x-55x-555-9-7-55x|

E|----------------------------------------|
B|----------------------------------------|
G|---------------------------------6/7/9/7|
D|12/0-0-9-7-5-0x-00x-000-9-7-5-00-6/7/9/7|
A|12/0-0-9-7-5-0x-00x-000-9-7-5-00-4/5/7/5|
D|12/0-0-9-7-5-0x-00x-000-9-7-5-00--------|
                                ..
E|-------------------|
B|-------------------|
G|-------------------|
D|5-9-7-55x-55x-5555x|
A|5-9-7-55x-55x-5555x|
D|5-9-7-55x-55x-5555x|

Verse 1
E|---------------------------|
B|---------------------------|
G|---------------------------|
D|0x-0000x-55x-55x-55x-55x-57|
A|0x-0000x-55x-55x-55x-55x-57|
D|0x-0000x-55x-55x-55x-55x-57|
                           .
E|----------------------------------|
B|----------------------------------|
G|----------------------------------|
D|000x-05000x-0455x-55x-55x-55x-7777|
A|000x-05000x-0455x-55x-55x-55x-7777|
D|000x-05000x-0455x-55x-55x-55x-7777|
       .      .
Prechorus
E|-----------------------------|
B|-----------------------------|
G|-----------------------------|
D|5/0x-5-9-7x-44445/0x-5-9-7-5x|
A|5/0x-5-9-7x-44445/0x-5-9-7-5x|
D|5/0x-5-9-7x-44445/0x-5-9-7-5x|

Chorus
E|------------------------------------------------|
B|------------------------------------------------|
G|------------------------------------------------|
D|000555555777799955500000777999995550000077799999|
A|000555555777799955500000777999995550000077799999|
D|000555555777799955500000777999995550000077799999|

E|------------------------------|
B|------------------------------|
G|------------------------------|
D|5x-555x-555x-555597x-777x-777x|
A|5x-555x-555x-555597x-777x-777x|
D|5x-555x-555x-555597x-777x-777x|

Post chorus
E|-----------------------------------------|
B|-----------------------------------------|
G|----------------------------------6/7/9/7|
D|12/0-0-9-7-5-0x-00x-000x-9-7-5-00-6/7/9/7|
A|12/0-0-9-7-5-0x-00x-000x-9-7-5-00-4/5/7/5|
D|12/0-0-9-7-5-0x-00x-000x-9-7-5-00--------|
                                 ..
E|-------------------------|
B|-------------------------|
G|-------------------------|
D|5-9-7-55x-55x-555-9-7-55x|
A|5-9-7-55x-55x-555-9-7-55x|
D|5-9-7-55x-55x-555-9-7-55x|

Verse 2
E|-------------------------------------------------|
B|-------------------------------------------------|
G|-------------------------------------------------|
D|0-000000000000-0000-000000000-55x-55x-55x-55x-777|
A|0-000000000000-0000-000000000-55x-55x-55x-55x-777|
D|0-000000000000-0000-000000000-55x-55x-55x-55x-777|
    ............      .........
E|----------------------------------|
B|----------------------------------|
G|----------------------------------|
D|000x-05000x-0455x-55x-55x-55x-7777|
A|000x-05000x-0455x-55x-55x-55x-7777|
D|000x-05000x-0455x-55x-55x-55x-7777|
       .      .
E|-----------------------------|
B|-----------------------------|
G|-----------------------------|
D|5/0x-5-9-7x-44445/0x-5-9-7-5x|
A|5/0x-5-9-7x-44445/0x-5-9-7-5x|
D|5/0x-5-9-7x-44445/0x-5-9-7-5x|

Chorus
E|------------------------------------------------|
B|------------------------------------------------|
G|------------------------------------------------|
D|000555555777799955500000777999995550000077799999|
A|000555555777799955500000777999995550000077799999|
D|000555555777799955500000777999995550000077799999|

E|-----------------------------|
B|-----------------------------|
G|-----------------------------|
D|55x-555x-555x-55597-777x-777x|
A|55x-555x-555x-55597-777x-777x|
D|55x-555x-555x-55597-777x-777x|

Interlude
E|-----------------------|
B|-----------------------|
G|-----------------------|
D|000x-0000x-5555x-555x-7|
A|000x-0000x-5555x-555x-7|
D|000x-0000x-5555x-555x-7|
  ...  ....  ....  ...
E|-------------------------------|
B|-------------------------------|
G|-------------------------------|
D|000-0000000-4444555-5555555-557|
A|000-0000000-4444555-5555555-557|
D|000-0000000-4444555-5555555-557|
  ... ....... ....... ....... ..
E|---------------------|
B|---------------------|
G|---------------------|
D|000-0000000-4444555-5|
A|000-0000000-4444555-5|
D|000-0000000-4444555-5|
  ..  ......  ......
Chorus
E|------------------------------------------------|
B|------------------------------------------------|
G|------------------------------------------------|
D|000555555777799955500000777999995550000077799999|
A|000555555777799955500000777999995550000077799999|
D|000555555777799955500000777999995550000077799999|

E|--------------------------------|
B|--------------------------------|
G|--------------------------------|
D|55500000777999995550000077799999|
A|55500000777999995550000077799999|
D|55500000777999995550000077799999|

E|-------------------------------|
B|-------------------------------|
G|-------------------------------|
D|5555555555555559999777777777777|
A|5555555555555559999777777777777|
D|5555555555555559999777777777777|

Outro
E|--------------------|
B|--------------------|
G|--------------------|
D|000-0000-5555-5555-7|
A|000-0000-5555-5555-7|
D|000-0000-5555-5555-7|
  ... .... .... ....
E|-------------------------------|
B|-------------------------------|
G|---------------------------1414|
D|000-000000-4444555-5555555-1414|
A|000-000000-4444555-5555555-1212|
D|000-000000-4444555-5555555-----|
  ... ...... ....... .......
Suggest correction
Give kudos to tab author, rate the tab!
1 2 3 4 5
comments
print report bad tab
guest
You may want to rate the tab now too:
select rating
Wanna post a correction for this tab? Suggest correction