Oops, an error
Loading. Please wait.

Sincerely Yours Bass Tab

version 1
version 1

Whole song

Interactive

7 views 1 this week
no commentswrite comment
1 2 3 4 5
3 more votes to show rating
add to favorites
launch autoscroll
font size
0
reset
guitar tuner
Autoscroll
slow
fast
+/-
esc
set tempo
stop
Help us to improve Ultimate-Guitar.com Take our survey!
×
Author
Difficulty
Tuning
intermediate
D A D G B E
[Intro]

     E  E  E  H        E     E  E  E  E  E  E  E  E     E  E  Q    E  E  Q     
G||-----------------------|--------------------------|------------------------|
D||-----------------------|--------------------------|------------------------|
A||-----------------------|--------------------------|------------------------|
D||--2--2--2-----------4--|--L--4--4-----4--4-----0--|--L--0--0----0--0--0----|


    E  E  Q    E  E  Q       E  E  E  H        E     E  E  E  E  E  E  E  E   
G|------------------------|-----------------------|--------------------------|
D|------------------------|-----------------------|--------------------------|
A|------------------------|-----------------------|--------------------------|
D|--0--0--0----0--0--0----|--2--2--2-----------4--|--L--4--4-----4--4-----0--|


    E  E  Q    E  E  Q       E  E  Q    E  E  Q        
G|------------------------|------------------------|
D|------------------------|------------------------|
A|------------------------|------------------------|
D|--L--0--0----0--0--0----|--0--0--0----0--0--0----|

[Verse 1]

    E  E  E  E  E  E  E  E     E  E  E  E  E  E  E  E     E  E  E  E  E  E  E  E   
G|--------------------------|--------------------------|--------------------------|
D|--------------------------|--------------------------|--------------------------|
A|--------------------------|--------------------------|--------------------------|
D|--4--4--4--4--4--4--4--4--|--0--0--0--0--0--0--0--0--|--2--2--2--2--2--2--2--2--|


    E  E  E  E  E  E  E  E     E  E  E  E  E  E  E  E   
G|--------------------------|--------------------------|
D|--------------------------|--------------------------|
A|--0--0--0--0--0--0--0--0--|--------------------------|
D|--------------------------|--4--4--4--4--4--4--4--4--|


    E  E  E  E  E  E  E  E     E  E  E  E  E  E  E  E   
G|--------------------------|--------------------------|
D|--------------------------|--------------------------|
A|--------------------------|--------------------------|
D|--2--2--2--2--2--2--2--2--|--0--0--0--0--0--0--0--0--|


    E  E  E  E  E  E  E  E     E  E  E  E  E  E  E  E   
G|--------------------------|--------------------------|
D|--------------------------|--------------------------|
A|--------------------------|--------------------------|
D|--0--0--0--0--0--0--0--0--|--4--4--4--4--4--4--4--4--|


    E  E  E  E  E  E  E  E     E  E  E  E  E  E  E  E   
G|--------------------------|--------------------------|
D|--------------------------|--------------------------|
A|--------------------------|--------------------------|
D|--0--0--0--0--0--0--0--0--|--2--2--2--2--2--2--2--2--|


    E  E  E  E  E  E  E  E     E  E  E  E  E  E  E  E   
G|--------------------------|--------------------------|
D|--------------------------|--------------------------|
A|--0--0--0--0--0--0--0--0--|--------------------------|
D|--------------------------|--4--4--4--4--4--4--4--4--|


    E  E  E  E  E  E  E  E     E  E  E  E  E  E  E  E     E  E  E  E  E  E  E  E   
G|--------------------------|--------------------------|--------------------------|
D|--------------------------|--------------------------|--------------------------|
A|--------------------------|--------------------------|--------------------------|
D|--2--2--2--2--2--2--2--2--|--0--0-----0--0-----0--0--|-----0--0-----0--0--0--0--|

[Pre-Chorus 1]

    E  E  H        Q       E  E  H        Q     
G|----------------------|----------------------|
D|----------------------|----------------------|
A|----------------------|----------------------|
D|--2--2-----------2----|--4--4-----------4----|


    E  E  E  E  E  E  E  E     E  E  E  E  E  E  E  E     E  E  H        Q     
G|--------------------------|--------------------------|----------------------|
D|--------------------------|--------------------------|----------------------|
A|--------------------------|--------------------------|----------------------|
D|--0--0-----0--0-----0--0--|-----0--0-----0--0--0--0--|--2--2-----------2----|


    E  E  H        Q       E  E  E  E  E  E  E  E     E  E  E  E  E  E  E  E   
G|----------------------|--------------------------|--------------------------|
D|----------------------|--------------------------|--------------------------|
A|----------------------|--------------------------|--------------------------|
D|--4--4-----------4----|--0--0--0--0--0--0--0--0--|--0--0--0--0--0--0--0--0--|

[Chorus 1]

    E  E  Q    E  E  Q       E  E  Q    E  E  E  E     E  E  Q    E  E  Q     
G|------------------------|-------------------------|------------------------|
D|------------------------|-------------------------|------------------------|
A|--0--0--0----0--0--0----|--0--0--0----0--0--0--2--|--L--2--2----2--2--2----|
D|------------------------|-------------------------|------------------------|


    E  E  Q    E  E  E  E     E  E  Q    E  E  Q       E  E  Q    E  E  Q     
G|-------------------------|------------------------|------------------------|
D|-------------------------|------------------------|------------------------|
A|--2--2--2----2--2--2-----|------------------------|------------------------|
D|----------------------4--|--L--4--4----4--4--4----|--4--4--4----4--4--4----|


    E  E  Q    E  E  Q       E  E  Q    E  E  Q       E  E  Q    E  E  Q     
G|------------------------|------------------------|------------------------|
D|------------------------|------------------------|------------------------|
A|------------------------|------------------------|--0--0--0----0--0--0----|
D|--0--0--0----0--0--0----|--0--0--0----0--0--0----|------------------------|


    E  E  Q    E  E  E  E     E  E  Q    E  E  Q       E  E  Q    E  E  E  E   
G|-------------------------|------------------------|-------------------------|
D|-------------------------|------------------------|-------------------------|
A|--0--0--0----0--0--0--2--|--L--2--2----2--2--2----|--2--2--2----2--2--2-----|
D|-------------------------|------------------------|----------------------4--|


    E  E  Q    E  E  Q       E  E  E  E  E  E  E  E     Q    Q    Q.     E     Q    Q    E  E  E  E   
G|------------------------|--------------------------|----------------------|------------------------|
D|------------------------|--------------------------|----------------------|------------------------|
A|------------------------|--------------------------|----------------------|------------------------|
D|--L--4--4----4--4--4----|--4--4--4--4--4--4-----0--|--L----0----0------0--|--0----0----4--0--4--0--|

[Turnaround]

    E  E  E  H        E     E  E  E  E  E  E  E  E   
G|-----------------------|--------------------------|
D|-----------------------|--------------------------|
A|-----------------------|--------------------------|
D|--2--2--2-----------4--|--L--4--4-----4--4-----0--|


    E  E  Q    E  E  Q       E  E  Q    E  E  Q       E  E  E  H        E   
G|------------------------|------------------------|-----------------------|
D|------------------------|------------------------|-----------------------|
A|------------------------|------------------------|-----------------------|
D|--L--0--0----0--0--0----|--0--0--0----0--0--0----|--2--2--2-----------4--|


    E  E  E  E  E  E  E  E     H        Q    Q       Q    Q    E  Q.      
G|--------------------------|---------------------|----------------------|
D|--------------------------|---------------------|----------------------|
A|--------------------------|---------------------|----------------------|
D|--L--4--4-----4-----x--0--|--L--------0----0----|--0----0----0--2------|

[Verse 2]

    E  E  E  E  E  E  E  E     E  E  E  E  E  E  E  E   
G|--------------------------|--------------------------|
D|--------------------------|--------------------------|
A|--------------------------|--------------------------|
D|--4--4--4--4--4--4--4--4--|--0--0--0--0--0--0--0--0--|


    E  E  E  E  E  E  E  E     E  E  E  E  E  E  E  E   
G|--------------------------|--------------------------|
D|--------------------------|--------------------------|
A|--------------------------|--0--0--0--0--0--0--0--0--|
D|--2--2--2--2--2--2--2--2--|--------------------------|


    E  E  E  E  E  E  E  E     E  E  E  E  E  E  E  E   
G|--------------------------|--------------------------|
D|--------------------------|--------------------------|
A|--------------------------|--------------------------|
D|--4--4--4--4--4--4--4--4--|--2--2--2--2--2--2--2--2--|


    E  E  E  E  E  E  E  E     E  E  E  E  E  E  E  E     E  E  Q    E  E  Q     
G|--------------------------|--------------------------|------------------------|
D|--------------------------|--------------------------|------------------------|
A|--------------------------|--------------------------|------------------------|
D|--0--0--0--0--0--0--0--0--|--0--0--0--0--0--0--0--0--|--4--4--4----4--4--4----|


    E  E  Q    E  E  Q       E  E  Q    E  E  Q       E  E  Q    E  E  Q     
G|------------------------|------------------------|------------------------|
D|------------------------|------------------------|------------------------|
A|------------------------|------------------------|------------------------|
D|--0--0--0----0--0--0----|--2--2--2----2--2--2----|--7--7--7----7--7--7----|


    E  E  Q    E  E  Q       E  E  Q    E  E  Q       E  E  E  E  E  E  E  E     E  E  E  E  E  E  E  E   
G|------------------------|------------------------|--------------------------|--------------------------|
D|------------------------|------------------------|--------------------------|--------------------------|
A|------------------------|------------------------|--------------------------|--------------------------|
D|--4--4--4----4--4--4----|--2--2--2----2--2--2----|--0--0--0--0--0--0--0--0--|--0--0--0--0--0--0--0--0--|

[Pre-Chorus 2]

    E  E  H        Q       E  E  H        Q     
G|----------------------|----------------------|
D|----------------------|----------------------|
A|----------------------|----------------------|
D|--2--2-----------2----|--4--4-----------4----|


    E  E  E  E  E  E  E  E     E  E  E  E  E  E  E  E     E  E  H        Q     
G|--------------------------|--------------------------|----------------------|
D|--------------------------|--------------------------|----------------------|
A|--------------------------|--------------------------|----------------------|
D|--0--0-----0--0-----0--0--|-----0--0-----0--0--0--0--|--2--2-----------2----|


    E  E  H        Q       E  E  E  E  E  E  E  E     E  E  E  E  E  E  E  E   
G|----------------------|--------------------------|--------------------------|
D|----------------------|--------------------------|--------------------------|
A|----------------------|--------------------------|--------------------------|
D|--4--4-----------4----|--0--0--0--0--0--0--0--0--|--0--0--0--0--0--0--0--0--|

[Chorus 2]

    E  E  Q    E  E  Q       E  E  Q    E  E  E  E     E  E  Q    E  E  Q     
G|------------------------|-------------------------|------------------------|
D|------------------------|-------------------------|------------------------|
A|--0--0--0----0--0--0----|--0--0--0----0--0--0--2--|--L--2--2----2--2--2----|
D|------------------------|-------------------------|------------------------|


    E  E  Q    E  E  E  E     E  E  Q    E  E  Q       E  E  Q    E  E  Q     
G|-------------------------|------------------------|------------------------|
D|-------------------------|------------------------|------------------------|
A|--2--2--2----2--2--2-----|------------------------|------------------------|
D|----------------------4--|--L--4--4----4--4--4----|--4--4--4----4--4--4----|


    E  E  Q    E  E  Q       E  E  Q    E  E  Q       E  E  Q    E  E  Q     
G|------------------------|------------------------|------------------------|
D|------------------------|------------------------|------------------------|
A|------------------------|------------------------|--0--0--0----0--0--0----|
D|--0--0--0----0--0--0----|--0--0--0----0--0--0----|------------------------|


    E  E  Q    E  E  E  E     E  E  Q    E  E  Q       E  E  Q    E  E  E  E   
G|-------------------------|------------------------|-------------------------|
D|-------------------------|------------------------|-------------------------|
A|--0--0--0----0--0--0--2--|--L--2--2----2--2--2----|--2--2--2----2--2--2-----|
D|-------------------------|------------------------|----------------------4--|


    E  E  Q    E  E  Q       E  E  Q    E  E  Q       E  E  Q    E  E  Q       E  E  Q    E  E  Q     
G|------------------------|------------------------|------------------------|------------------------|
D|------------------------|------------------------|------------------------|------------------------|
A|------------------------|------------------------|------------------------|------------------------|
D|--L--4--4----4--4--4----|--4--4--4----4--4--4----|--0--0--0----0--0--0----|--0--0--0----0--0--0----|

[Bridge]

    W                   H         Q.     E            
G|-------------------|-----------------------|-------|
D|-------------------|-----------------------|-------|
A|-------------------|-----------------------|-------|
D|--0----------------|--L--------/7------L\--|-------|


                                            E  E  E  E  E  E  E  E     E  E  E  E  E  E  E  E   
G|-------|-------|-------|-------|-------|--------------------------|--------------------------|
D|-------|-------|-------|-------|-------|--------------------------|--------------------------|
A|-------|-------|-------|-------|-------|--5--5--5--5--5--5--5--5--|--5--5--5--5--5--5--5--5--|
D|-------|-------|-------|-------|-------|--------------------------|--------------------------|

[Pre-Chorus 3]

    E  E  Q    E  E  Q       E  E  Q    E  E  Q     
G|------------------------|------------------------|
D|------------------------|------------------------|
A|------------------------|------------------------|
D|--2--2--2----2--2--2----|--4--4--4----4--4--4----|


    E  E  Q    E  E  Q       E  E  Q    E  E  Q       E  E  Q    E  E  Q     
G|------------------------|------------------------|------------------------|
D|------------------------|------------------------|------------------------|
A|------------------------|------------------------|------------------------|
D|--0--0--0----0--0--0----|--0--0--0----0--0--0----|--2--2--2----2--2--2----|


    E  E  Q    E  E  Q       E  E  H.              E  E  H.            
G|------------------------|---------------------|---------------------|
D|------------------------|---------------------|---------------------|
A|------------------------|---------------------|---------------------|
D|--4--4--4----4--4--4----|--0--0--0------------|--0--0--0------------|

[Chorus 3]

    E  E  Q    E  E  Q       E  E  Q    E  E  E  E     E  E  Q    E  E  Q     
G|------------------------|-------------------------|------------------------|
D|------------------------|-------------------------|------------------------|
A|------------------------|-------------------------|--0--0--0----0--0--0----|
D|--0--0--0----0--0--0----|--0--0--0----0--0--0--0--|------------------------|


    E  E  Q    E  E  E  E     E  E  Q    E  E  Q       E  E  Q    E  E  E  E   
G|-------------------------|------------------------|-------------------------|
D|-------------------------|------------------------|-------------------------|
A|--0--0--0----0--0--0--2--|--L--2--2----2--2--2----|--2--2--2----2--2--2-----|
D|-------------------------|------------------------|----------------------4--|


    E  E  Q    E  E  Q       E  E  Q    E  E  Q       E  E  Q    E  E  Q     
G|------------------------|------------------------|------------------------|
D|------------------------|------------------------|------------------------|
A|------------------------|------------------------|------------------------|
D|--L--4--4----4--4--4----|--4--4--4----4--4--4----|--0--0--0----0--0--0----|


    E  E  Q    E  E  Q       E  E  Q    E  E  Q       E  E  Q    E  E  E  E   
G|------------------------|------------------------|-------------------------|
D|------------------------|------------------------|-------------------------|
A|------------------------|--0--0--0----0--0--0----|--0--0--0----0--0--0--2--|
D|--0--0--0----0--0--0----|------------------------|-------------------------|


    E  E  Q    E  E  Q       E  E  Q    E  E  E  E     E  E  Q    E  E  Q     
G|------------------------|-------------------------|------------------------|
D|------------------------|-------------------------|------------------------|
A|--L--2--2----2--2--2----|--2--2--2----2--2--2-----|------------------------|
D|------------------------|----------------------4--|--L--4--4----4--4--4----|


    E  E  Q    E  E  Q       E  E  Q    E  E  Q       E  E  Q    E  E  Q     
G|------------------------|------------------------|------------------------|
D|------------------------|------------------------|------------------------|
A|------------------------|------------------------|------------------------|
D|--4--4--4----4--4--4----|--0--0--0----0--0--0----|--0--0--0----0--0--0----|


    E  E  E  E  E  E  E  E     E  E  E  E  E  E  E  E     W                 
G|--------------------------|--------------------------|-------------------|
D|--------------------------|--------------------------|-------------------|
A|--------------------------|--------------------------|-------------------|
D|--0--0--0--0--0--0--0--0--|--0--0--0--0--0--0--0--0--|--7----------------|



Duration Legend
---------------
W - whole
H - half
Q - quarter
E - 8th
S - 16th
. - note dotted


Tablature Legend
----------------
L - tied note
x - dead note
g - grace note
h - hammer on
p - pull off
b - bend
s - legato slide
Suggest correction
Give kudos to tab author, rate the tab!
1 2 3 4 5
comments
print report bad tab
guest
You may want to rate the tab now too:
select rating
Wanna post a correction for this tab? Suggest correction