Oops, an error
Loading. Please wait.

Detras Del Tiempo tab

by Hitter
8 views 1 this week
no commentswrite comment
1 2 3 4 5
3 more votes to show rating
add to favorites
×
Save as Personal and add changes to this tab that will be seen only by you. Learn more ›
×
You can save this tab as Personal to edit and correct it or add notes. All changes will be seen only by you. Learn more »
launch autoscroll
font size
0
reset
how to read this tab
guitar tuner
edit
Autoscroll
slow
fast
+/-
esc
set tempo
stop
Colaboracion por Daniel Shteremberg y Patrico Mariscal


Intro:
e |-----11----11---------11---11---------11----11-------------------------|
B |--11----11----11-9-9-----9-----9-8-8-----8-----8-8-8h9-8-6-4-----------|
G |-----------------------------------------------------------------------|
D |-----------------------------------------------------------------------|
A |-----------------------------------------------------------------------|
E |-----------------------------------------------------------------------|


Solo:
e |--------------------------11---------10---------8----------------------|
B |--9-8---------------------------11---------11-------11----11----11-----|
G |------8-8-9-10-8-7-8----8----8-----8----8-----8---8----8-----8------8--|
D |-----------------------------------------------------------------------|
A |-----------------------------------------------------------------------|
E |-----------------------------------------------------------------------|


e |-----------------------------------------------------------13-11----13--|
B |--11b13b11-11-8-8-8-8-8-8h9--8-9-9h10-9-8~~~---------------------11-----|
G |----------------------------------------------10-7-8/11-----------------|
D |------------------------------------------------------------------------|
A |------------------------------------------------------------------------|
E |------------------------------------------------------------------------|


e |------------------------------------------------------------------------|
B |------12-12/16~~~~----15-16-18-16-18-18b20~~-20b18-18-18-18r16----------|
G |--12~-------------------------------------------------------------------|
D |------------------------------------------------------------------------|
A |------------------------------------------------------------------------|
E |------------------------------------------------------------------------|

e |------------------------------------------------------------------------|
B |---16-16-16/15-15-15-15/13-13-13-13/11-11-11-11/9-9-9-9h10-10-10--------|
G |------------------------------------------------------------------------|
D |------------------------------------------------------------------------|
A |------------------------------------------------------------------------|
E |------------------------------------------------------------------------|

e |------------------------------------------------------------------------|
B |---16-15----15----------15-16-15----15----------15-18-15----15----------|
G |---------15----15----15----------15----15----15----------15----15-------|
D |------------------15----------------------15----------------------15----|
A |------------------------------------------------------------------------|
E |------------------------------------------------------------------------|

e |------------------------------------------------------------------------|
B |------15-16-15----15----------------------------------------------------|
G |---15----------15----15--------15----------15---------------------------|
D |------------------------15--13----13~~--13----13-12b13b12-13------------|
A |------------------------------------------------------------------------|
E |------------------------------------------------------------------------|


e |----------------------------------------------------------------------|
B |----------------------------------------------------------------------|
G |-----15---------------------------------------------------------------|
D |--13----13~/----------------------------------------------------------|
A |---------------10-10-10-10-10-10-10-10--12-12-12-12-12-12-12-12-------|
E |----------------------------------------------------------------------|


Intro... X4

D#(add9) X4


D#(add9)      G#           C(add9)       A#
      Pasaje por el tiempo             del destino


D#(add9)      G#                      C(add9)          A#
      Cambiaria acceptar             todo lo que he perdido


D#(add9)      G#           C(add9)       A#
      Esta manera de encontrarse con lo que hay detras


D#(add9)      G#           C(add9)       A#
      Que te ha faltado navegar para poderme transformar


D#(add9) X4


D#(add9)         G#               C(add9)      A#
      Quedar a solas  ya es            bastante tarde


D#(add9)        G#             C(add9)            A#
      Donde la linea?? causaria            un gran desastre


D#(add9)      G#           C(add9)       A#
      Esta manera de encontrarse con lo que hay detras


D#(add9)      G#           C(add9)       A#
      Que te ha faltado navegar para poderme transformar


D#(add9) X4


D#(add9)                  G#
      Hoy se hace tarde            muy tarde ya


C(add9)                        A#
      Quieres llegar hacia el final


D#(add9)                  G#
      Hoy se hace tarde            muy tarde ya


C(add9)                      A#
      Y mi sirena no ha dejado de nadar


D#(add9)  G#  C(add9)  A# -- 4 circulos
Oooooooooooo yeeeeeeeeeeeeeeeeehhhhhhh
Oooooooooooo ooooooooooooooo he yeeeeeeeeeehhh


D#(add9)   G#       C(add9)      A#
      No quiero un minuto mas


D#(add9)   G#          C(add9)      A#
      NO te he demostrado ya


D#(add9)      G#      C(add9)          A#
      A la persona de quien te hable


D#(add9)
      Te encuentras frente a mi


SOLO


D#(add9)   G#       C(add9)      A#
      No quiero un minuto mas


D#(add9)   G#          C(add9)      A#
      NO te he demostrado ya


D#(add9)      G#      C(add9)          A#
      A la persona de quien te hable


D#(add9)
      Te encuentras frente a mi


D#(add9)  G#  C(add9) F            X2


D#(add9)                  G#
      Hoy se hace tarde            muy tarde ya


C(add9)                        A#
      Quieres llegar hacia el final


D#(add9)                  G#
      Hoy se hace tarde            muy tarde ya


C(add9)                      A#
      Y mi sirena no ha dejado de nadar

X2


D#(add9)  G#  C(add9)  F      X2


Acordes:

   D#(add9)       G#              C(add9)             A#              F
e |---6-----------4---------------3---------------6---------------1---------------|
B |---6-----------4---------------3---------------6---------------1---------------|
G |---8-----------5---------------5---------------7---------------2---------------|
D |---8-----------6---------------5---------------8---------------3---------------|
A |---6-----------6---------------3---------------8---------------3---------------|
E |---6-----------4---------------3---------------6---------------1---------------|


Guia para el solo:
b - bend
h - hammer
r - release
/ - slide
~ - vibrato
 - slight palm mute
Suggest correction
Creating personal tab
Creating personal tab
You can edit any tab online and save it as your Personal.

You can edit, replace or remove any tab part or add personal notes – all changes will be seen only by you.

Personal tabs can be accessed anytime from any device, even offline.
Learn more »
Give kudos to tab author, rate the tab!
1 2 3 4 5
comments
print report bad tab
guest
Wanna post a correction for this tab? Suggest correction