Oops, an error
Loading. Please wait.

Nije Sve Tako Sivo Tab

version 1
version 1

Whole song

Interactive

7,448 views 9 this week
no commentswrite comment
1 2 3 4 5
worth learning
x 3
add to favorites
launch autoscroll
font size
0
reset
how to read this tab
guitar tuner
Tab Pro tools
  • play this tab
  • loop segment
  • change instrument
  • show fretboard
  • metronome
Autoscroll
slow
fast
+/-
esc
set tempo
stop
Contributor
Difficulty
novice
This song is played by 2 guitars and bass,it's very easy and here you go....good 
is written by Martino........Hladno Pivo rules ;)


Intro:bas

Verse 1:bass

riff 1:

e|--14-14-14-14p13--14-14-14-14p13--14-14-14-14-13-13-13-14-16-|
B|-------------------------------------------------------------|
G|-------------------------------------------------------------|x2
D|-------------------------------------------------------------|
A|-------------------------------------------------------------|
E|-------------------------------------------------------------|

verse 2: riff 1

riff 2:

guitar 1
e|-----------------------------------------------------------------|
B|-----------------------------------------------------------------|
G|-----------------------------------------------------------------|
D|------------------------77787--------------------7777777--77787--|
A|5555555h7-888p7h8-------77787---5555555h7-888p7h8---------77787--|
E|-----------------55555--55565-----------------------------55565--|

guitar 2

e|-----------------------------------------------------------------------|
B|-----------------------------------------------------------------------|
G|--7777777-3333333-----------------7777777-3333333-10101010101010-------|
D|--7777777-3333333-3333333-77787---7777777-3333333-10101010101010-77787-|
A|--5555555-1111111-3333333-77787---5555555-1111111--8-8-8-8-8-8-8-77787-|
E|------------------1111111-55565----------------------------------55565-|

verse 3:

1st part

guitar 2
e|-------------------------------------------|------------------------------|
B|-------------------------------------------|------------------------------|
G|-777777-333333-10-10-10-10--9--9-10--12-12-|777777-333333-10(x9)-999-10-12|
D|-777777-333333---10-10-10-10-10------------|777777-333333-----------------|
A|-555555-111111-----------------------------|555555-111111-----------------|
E|-------------------------------------------|------------------------------|
    .....  .....

guitar 1
e|---------------14(x9)-------13-13-13-14-16-|-----------14(x9)-13(x3)-14-16|
B|-------------------------------------------|------------------------------|
G|-------------------------------------------|------------------------------|
D|-------------------------------------------|------------------------------|
A|-------------------------------------------|------------------------------|
E|-------------------------------------------|------------------------------|

2nd part

guitar 2
e|-----------------------------------------|
B|-----------------------------------------|
G|--77~777-33~333--1010101010101010--------|
D|--77~777-33~333--1010101010101010--77787-|
A|--55~555-11~111---8-8-8-8-8-8-8-8--77787-|
E|-----------------------------------55565-|

guitar 1
e|-----------------------------------------|
B|-----------------------------------------|
G|-----------------------------------------|
D|-----------------------------------77787-|
A|-----------------------------------77787-|
E|-----------------------------------55565-|

guitar 2
e|-----------------------------------------------------------------------|
B|-----------------------------------------------------------------------|
G|-77~777-33~333--1010101010101010---------------------------------------|
D|-77~777-33~333--1010101010101010--77787--------------------------------|
A|-55~555-11~111---8-8-8-8-8-8-8-8--77787--------------------------------|
E|----------------------------------77787--------------------------------|

guitar 1
e|---------------------------------------13h14p13h14p13h14p13-13p12~-----|
B|-----------------------------------------------------------------------|
G|-----------------------------------------------------------------------|
D|-----------------------------------------------------------------------|
A|-----------------------------------------------------------------------|
E|-----------------------------------------------------------------------|

guitar 2
e|-------------------------------------|
B|-------------------------------------|
G|---------9h10p9h10p9h10p9h10p9-------|
D|-77787-------------------------------|
A|-77787-------------------------------|
E|-55565-------------------------------|

guitar 1
e|---------13h14p13h14p13h14p13h14p13--|
B|-------------------------------------|
G|-------------------------------------|
D|-------------------------------------|
A|-------------------------------------|
E|-------------------------------------|

chorus 1:

guitar 1
e|----------------------------------------------------------------------|
B|----------------------------------------------------------------------|
G|----------------------------------------------------------------------|X2
D|-------------------------77787--------------------7777777-------77787-|
A|-5555555h7-888p7h8-------77787---5555555h7-888p7h8--------------77787-|
E|------------------55555--55565----------------------------------55565-|

guitar 2
e|----------------------------------------------------------------------|
B|----------------------------------------------------------------------|
G|-7777777-3333333-----------------7777777-3333333-10101010101010-------|X2
D|-7777777-3333333-3333333-77787---7777777-3333333-10101010101010-77787-|
A|-5555555-1111111-3333333-77787---5555555-1111111--8-8-8-8-8-8-8-77787-|
E|-----------------1111111-55565----------------------------------55565-|

riff 2:

verse 4:

1st part

guitar 2
e|-------------------------------------------|------------------------------|
B|-------------------------------------------|------------------------------|
G|-777777-333333-10-10-10-10--9--9-10--12-12-|777777-333333-10(x9)-999-10-12|
D|-777777-333333---10-10-10-10-10------------|777777-333333-----------------|
A|-555555-111111-----------------------------|555555-111111-----------------|
E|-------------------------------------------|------------------------------|
    .....  .....                               .....  .....

guitar 1
e|---------------14(x9)-------13-13-13-14-16-|------------14(x9)-13(x3)-1416|
B|-------------------------------------------|------------------------------|
G|-------------------------------------------|------------------------------|
D|-------------------------------------------|------------------------------|
A|-------------------------------------------|------------------------------|
E|-------------------------------------------|------------------------------|

2nd part

guitar 2
e|-----------------------------------------|
B|-----------------------------------------|
G|--77~777-33~333--1010101010101010--------|
D|--77~777-33~333--1010101010101010--77787-|
A|--55~555-11~111---8-8-8-8-8-8-8-8--77787-|
E|-----------------------------------55565-|

guitar 1
e|-----------------------------------------|
B|-----------------------------------------|
G|-----------------------------------------|
D|-----------------------------------77787-|
A|-----------------------------------77787-|
E|-----------------------------------55565-|

guitar 2
e|-----------------------------------------|
B|-----------------------------------------|
G|-77~777-33~333--1010101010101010---------|
D|-77~777-33~333--1010101010101010--77787--|
A|-55~555-11~111---8-8-8-8-8-8-8-8--77787--|
E|----------------------------------77787--|

guitar 1
e|-----------------------------------------|
B|-----------------------------------------|
G|-----------------------------------------|
D|----------------------------------77787--|
A|----------------------------------77787--|
E|----------------------------------55565--|

riff 1:

solo:

Guitar 1            part 1
e|-------------------------------------------------------------------------|
B|-------------------------------------------------------------------------|
G|--1111111111111p10---11111111111111p10---11111111111111p10--101010-11-13-|
D|-------------------------------------------------------------------------|
A|-------------------------------------------------------------------------|
E|-------------------------------------------------------------------------|
                    part 2
e|-----------------------------------------------------------|
B|-----------------------------------------------------------|
G|----10101010101010p9---10101010101010p9---10101010101010p9-|
D|-----------------------------------------------------------|
A|-----------------------------------------------------------|
E|-----------------------------------------------------------|

guitar 2
   play this when part 2 beggins
e|-----------------------------------------------------------|
B|--10b(12)~-10b~(12)~-10b(12)~------------------------------|
G|-----------------------------------------------------------|
D|-----------------------------------------------------------|
A|-----------------------------------------------------------|
E|-----------------------------------------------------------|

techno riff

chorus 1:

riff 3:

both guitars
e|--------------|
B|--------------|
G|--------------|
D|-77787-(bass)-|
A|-77787--------|
E|-77787--------|

chorus 3:

Guitar 1
e|--------------------------------------------------------------------------|
B|--------------------------------------------------------------------------|
G|--------------------------------------------------------------------------|
D|---------------------9999999--999109-----------------------9999999-9999-10|
A|7777777h9-101010p9h10---------999109--7777777h9-101010p9h10--------9999-10|
E|------------------------------777-87-------------------------------7777--8|

Guitar 2

e|-----------------------------------------------------------------------|
B|-----------------------------------------------------------------------|
G|--9999999-5555555-------------------9999999-5555555--------------------|
D|--9999999-5555555-5555555--999109---9999999-5555555-5555555--9999---10-|
A|--7777777-3333333-5555555--999109---7777777-3333333-5555555--9999---10-|
E|------------------3333333--777-87-------------------3333333--7777----8-|

guitar 1
e|----------------------------------------------------------------------|
B|----------------------------------------------------------------------|
G|----------------------------------------------------------------------|
D|-----------------------9999999--999109------------------------9999999-|
A|--7777777h9-101010p9h10---------999109---7777777h9-101010p9h10--------|
E|--------------------------------777-87--------------------------------|

guitar 2
e|------------------------------------------------------------|
B|------------------------------------------------------------|
G|--9999999-5555555-------------------9999999-5555555---------|
D|--9999999-5555555-5555555--999109---9999999-5555555-5555555-|
A|--7777777-3333333-5555555--999109---7777777-3333333-5555555-|
E|------------------3333333--777-87-------------------3333333-|

both guitars
e|----------------------|
B|----------------------|
G|----------------------|
D|-999109-999109-999109-|
A|-999109-999109-999109-|
E|-777-87-777-87-777-87-|

end on
e|------|
B|------|
G|------|
D|--22--|
A|--22--|
E|--00--|

That's about it...And if you have any questions or if i have mistakes you can
say to me on martino.skara@gmail.com......enyoj
comments
We did not receive enough feedback on this tab! Please rate:
print report bad tab
1 2 3 4 5
I want to post or [tab]
guest
You may want to rate the tab now too:
select rating
Please do not post tabs as comments. Select "correction" instead!