Oops, an error
Loading. Please wait.

So Do You tab

version 3
version 3

Whole song

130 views 1 this week
no commentswrite comment
1 2 3 4 5
3 more votes to show rating
add to favorites
×
Save as Personal and add changes to this tab that will be seen only by you. Learn more ›
×
You can save this tab as Personal to edit and correct it or add notes. All changes will be seen only by you. Learn more »
launch autoscroll
font size
0
reset
how to read this tab
guitar tuner
edit
Autoscroll
slow
fast
+/-
esc
set tempo
stop
Author
Difficulty
-------------------------------------------------------------------------------
                             SO DO YOU - Hoffmaestro
-------------------------------------------------------------------------------
Tabbed by: TukkerxD

Tuning: standard (no capo)


The original song is played with a lot of baré chords, wich could be hard,
so i give you two tabs, one with only baré chords and one with only a Bm/F#.
I personally prefer the second tab without bar chords, because it's a lot easier and sounds still great.


TAB 1 with baré chords.

chords.
A     577655
Bm/F# 224432
G     355433
D     x57775
                       
     A        Bm/F#          G        D
e|-------------------------------------------------------|
B|------------------3-----3------------------------------|
G|---------6--------4-----4--------4--------------7------|
D|---------7-----4-----------------5--------------7------|
A|------7-----2-----------------5-----5--------5-----5---|
E|---5-----------------2-----3---------------------------|

Play this part 32 times (yep, i counted ;)).
Then there's another part wich you hear a slap on the guitar.
The xxxx in the tab means you kill the sound with your palm or fingers.
Same chords.

        A          Bm             G        D
e|-------------------------------------------------------|
B|-----------------3--------x----------------------------|
G|------6-------x--4--------x-----4-----x--7------x------|
D|------7-------x--4--------x-----5-----x--7------x------|
A|------7-------x--2--------x-----5-----x--5------x------|
E|------5-------x-----------------3-----x----------------|

Play this part 4 times.
After that switch to the part without the guitar slap and play it another 4 times.
The outro is the same as the part without the guitar slap but played a little slower.

Keep practicing the baré chords or check out the other tab with only the Bm/F#.


TAB 2 with only the Bm/F#.

chords.
A     x02220
Bm/F# 224432
G     320003 (or 320033 doesn't really matter, but official the first one, I prefer play it like this)
D     xx0232

     A        Bm/F#          G        D
e|-------------------------------------------------------|
B|---------2--------3-----3--------3--------------3------|
G|---------2--------4-----4--------0--------------2------|
D|------2--------4--------------0-----0--------0-----0---|
A|---0--------2------------------------------------------|
E|---------------------2-----3---------------------------|

Play this 32 times.
Then there comes the part with the guitar slap.
The xxx in the tab means you kill the sound wit your palm or fingers.
Same chords.

        A        Bm             G        D
e|-------------------------------------------------------|
B|------2-----x--3--------x-----3-----x--3--------x------|
G|------2-----x--4--------x-----0-----x--2--------x------|
D|------2-----x--4--------x-----0-----x--0--------x------|
A|------0-----x--2--------x------------------------------|
E|------------------------------3-----x------------------|

Play this 4 times and then again the part without the guitar slap.
Then comes the outro wich is the same as the part without the guitar slap, only a little bit slower.

This is a great song for praticing your Bm chord and the other baré chords.
Good luck learning the song, it's awesome!

Suggest correction
Creating personal tab
Creating personal tab
You can edit any tab online and save it as your Personal.

You can edit, replace or remove any tab part or add personal notes – all changes will be seen only by you.

Personal tabs can be accessed anytime from any device, even offline.
Learn more »
Give kudos to tab author, rate the tab!
1 2 3 4 5
comments
print report bad tab
guest
You may want to rate the tab now too:
select rating
Wanna post a correction for this tab? Suggest correction