Oops, an error
Loading. Please wait.

Young Dad tab

version 1
version 1

Whole song

Interactive

29,936 views 9 this week
4 commentsread comments
1 2 3 4 5
x 6
add to favorites
×
Save as Personal and add changes to this tab that will be seen only by you. Learn more ›
×
You can save this tab as Personal to edit and correct it or add notes. All changes will be seen only by you. Learn more »
launch autoscroll
font size
0
reset
how to read this tab
guitar tuner
edit
Autoscroll
slow
fast
+/-
esc
set tempo
stop
Author
Difficulty
No capo, standard tuning

Intro:
e||-------|-------------------1----|-------------------1----|
B||-------|-------------------1----|-------------------3----|
G||-------|------------0h--2-------|------------0h--2-------|
D||-------|--3----3----------------|--0----0----------------|
A||-------|------------------------|------------------------|
E||-------|------------------------|------------------------|
    
----------------------|--------------------|
-------3----3--1------|--------------------|
-------3----3--3------|--2-----------------|
----------------------|--3-----------------|
--1-------------------|-----------3--------|
----------------------|--------------------|

F, Dm, Bb, F...

Listen fellow people ’cause I’ve got something to tell
I was at this club, right, it was late as hell
I met this pretty lady, she looked tramper than an eye
I didn’t know by then she’d mess up my life
I said you’ve got it going, want to take it to my room
We jumped into a cab and headed for my room
Well there at my room she worked on my affection
All kind of yoking, always sloppy with protection
Wake up late as she calls me one day
Telling me her period is late

Will I be a young dad
Sit around in my flat with her
I don’t want to live that life
So I stick to what I prefer

Story number to, folks, listen to me rhyme
This girl was a Christian, damn she was fine
That lady for a month that has given me a frown
But this good Jesus will he stand to dishonor her
One time, meet you outside
Trying to make a move there but something wasn’t right
She said I want to marry, the kid has to get it straight
Horny as I dog, I told her that could be arranged
Wake up late as she calls me one day
Telling me her period is late

Will I be a young dad
Sit around in my flat with her
I don’t want to live that life
So I stick to what I prefer

Will I be a young dad
Sit around in my flat with her
I don’t want to live that life
So I stick to what I prefer

The essence of it all, folks, is about to pass my lips
Think twice before you grab a lovely pair of hips
Yet another thing that you need to bear in mind
Wear a gummie head or life might just treat you unkind 

Will I be a young dad
Sit around in my flat with her
I don’t want to live that life
So I stick to what I prefer

Will I be a young dad
Sit around in my flat with her
I don’t want to live that life
So I stick to what I prefer




Enjoy! //Rasmus, bergman_rasmus@hotmail.com

            
            
Suggest correction
Creating personal tab
Creating personal tab
You can edit any tab online and save it as your Personal.

You can edit, replace or remove any tab part or add personal notes – all changes will be seen only by you.

Personal tabs can be accessed anytime from any device, even offline.
Learn more »
comments
print report bad tab
4 comments total. Showing first comments.
+1 reply
legojogge 10 Oct 14, 2010 11:44 AM

Very good tab, though a small change that anyone might notice is that there should be a pull-off at this section..

----------------------|--------------------|
-------3----3--1------|--------------------|
-------3----3--3------|--2-----------------|
----------------------|--3-----------------|
--1-------------------|-----------3--------|
----------------------|--------------------|


It's simple just add a pull-off here..
----------------------|--------------------|
-------3----3p-1------|--------------------|
-------3----3--3------|--2-----------------|
----------------------|--3-----------------|
--1-------------------|-----------3--------|
----------------------|--------------------|

0 reply
Foggs 92 Jun 24, 2013 01:04 AM

in the refrain I think it sounds better with C - Dm - Bb - F.
instead of F - Dm - Bb - F

0 reply
Foggs 92 Jun 24, 2013 01:04 AM

I play the refrain C - Dm - Bb - F instead, think it sounds better :) Good tab otherwise, thanks!

guest
You may want to rate the tab now too:
select rating
Wanna post a correction for this tab? Suggest correction