Oops, an error
Loading. Please wait.

Get A Job Tab

version 1
version 1

Whole song

Interactive

by Hog
219 views 1 this week
no commentswrite comment
1 2 3 4 5
please rate
add to favorites
launch autoscroll
font size
0
reset
how to read this tab
guitar tuner
Autoscroll
slow
fast
+/-
esc
set tempo
stop
Help us to improve Ultimate-Guitar.com Take our survey!
×
Author
ZOSO <(") 758
It's a really simple song, nobody else had made a tab for it so I figured I'd try it. 
E standard tuning.
Lots of distortion.
Let the badass-ery begin!       
     Intro/Verse riff (aka the most badass thing you've ever heard)

  That's the intro and just keep playing it for the verse too.
e|----|---------------------|
B|----|---------------------| 
G|----|--x-4-x-----x-4-x----|   
D|--6-|--x-4-x-4---x-4-x-6--|  
A|--6-|--x-2-x-4---x-2-x-6--|
E|--4-|--x---x-2---x---x-4--|


e|--------------------------|
B|--------------------------|
G|---------4----------------| Pre-chorus
D|--6~~~~~-4--4~~~~~~-------|
A|--6~~~~~-2--4~~~~~~-------|
E|--4~~~~~----2~~~~~~-------|

      
e|--------------------------------------|----------|
B|--------------------------------------|----------|
G|--------------------------------------|----------|
D|--6-6-6-6-6-6-6-6---2-2-2-2---4-4-4-4-|--999999--| play this part the last
A|--6-6-6-6-6-6-6-6---2-2-2-2---4-4-4-4-|--999999--| time through the chorus
E|--4-0-4-0-4-0-4-0---0-0-0-0---2-0-2-0-|--777777--|
    "Why doesn't anybody want me"
                     
                              Bridge
e|------------------------------|------------------------------|
B|------------------------------|------------------------------|
G|--6-666--5-555--3-333---------|--6-666--5-555--3-333--5-555--|
D|--x-xxx--x-xxx--x-xxx--6-666--|--x-xxx--x-xxx--x-xxx--x-xxx--|
A|--4-444--3-333--1-111--x-xxx--|--4-444--3-333--1-111--3-333--|
E|-----------------------4-444--|------------------------------|

e|-----------------------------|
B|-----------------------------|
G|--6-666--8-888--13--13-13-13-|
D|--x-xxx--x-xxx--X---X--X--X--|
A|--4-444--6-666--11--11-11-11-|
E|-----------------------------|


That's the whole song, I'm pretty sure it's correct. 
Suggest correction
What's this?
You can suggest a correction to this tab. Community and Mods will review your correction and vote to approve or reject it.
comments
We did not receive enough feedback on this tab! Please rate:
print report bad tab
1 2 3 4 5
guest
You may want to rate the tab now too:
select rating
Please do not post tabs as comments. Select "correction" instead!