Oops, an error
Loading. Please wait.

Cold Dead Fingers Tab

275 views 1 this week
no commentswrite comment
1 2 3 4 5
please rate
add to favorites
launch autoscroll
font size
0
reset
how to read this tab
guitar tuner
Autoscroll
slow
fast
+/-
esc
set tempo
stop
Help us to improve Ultimate-Guitar.com Take our survey!
×
Author
Difficulty
Tuning
novice
D A D G B E
Band: Hogjaw
Song: Cold Dead Fingers
Album: If It Ain't Broke
Genre: Southern Rock
Tuning: Drop D

http://www.hogjawmusic.com/

0:00 Riff 1
E----------------------------------------------------------|
B----------------------------------------------------------|
G-----------------5----------------------------------------|
D-0-------3-------5---------------0-------3-------5--------|
A-0-------3-------3---------------0-------3-------5--------|
D-0-------3-----------------------0-------3-------5--------|

0:19 Riff 2A
E-----------------------------------------------------------------|
B-----------------------------------------------------------------|
G-----------------------------------------------------------------|
D-------------------------------------------------3---5---3-------|
A-3-5-5-5-5-3-----3-5-5-5-5-3-----3-5-5-5-5-3-----3---5---3-------|
D-------------5-3-------------5-3-------------5-3-3---5---3-------|

0:29 (guitar 2) Riff 2B
E-----------------------------------------------------------------|
B-----------------------------------------------------------------|
G-5-7-7-7-7-5-----5-7-7-7-7-5-----5-7-7-7-7-5---------------------|
D-------------5-3-------------5-3-------------5-3-3---5---3-------|
A-------------------------------------------------3---5---3-------|
D-------------------------------------------------3---5---3-------|

0:38 Riff 3                               1.            2.
E----------------------------------------|-------------|-------------|
B----------------------------------------|-------------|-------------|
G----------------------------------------|-------------|-------------|
D-0-------------0-------------0----------|-3-----------|-----3---5---|
A-0-------3-5---0-------3-5---0-------3-5|-----3---5---|-3---3---5---|
D-0---3-5-------0---3-5-------0---3-5----|-------------|-----3---5---|

0:57 Riff 2B
1:07 Riff 2B
1:16 Riff 1
1:35 Riff 3
1:53 Riff 2A
2:03 Riff 2B
2:13 Riff 1
2:33 Riff 3 (w/solo)
2:53 Riff 1 (w/solo)

3:12
E-----------------------------------------------------------------|
B-----------------------------------------------------------------|
G-----------------------------------------------------------------|
D-----------------------------------------------------------------|
A-3-5-5-5-5-3-----3-5-5-5-5-3-----3-5-5-5-5-3-----3-5-5-5-5-3-----|
D-------------5-3-------------5-3-------------5-3-------------5-3-|

3:22 (Guitar 2)
E-----------------------------------------------------------------|
B-----------------------------------------------------------------|
G-5-7-7-7-7-5-----5-7-7-7-7-5-----5-7-7-7-7-5-----5-7-7-7-7-5-----|
D-------------5-3-------------5-3-------------5-3-------------5-3-|
A-----------------------------------------------------------------|
D-----------------------------------------------------------------|

3:31 Riff 3
3:50 Riff 2A
4:00 Riff 2B

4:09                       1,2,3. 4.
E-------------------------|------|--------------------|
B-------------------------|------|--------------------|
G-------------------------|------|--------------------|
D---------3-0-----5-3-----|------|0-------------------|
A-5-3---------3-0-----5-3-|5-----|0-------------------|
D-----5-3-----------------|------|0-------------------|

That's everything except the solo, if people ask for it I'll tab it.
Suggest correction
Give kudos to tab author, rate the tab!
1 2 3 4 5
comments
print report bad tab
guest
You may want to rate the tab now too:
select rating
Wanna post a correction for this tab? Suggest correction