Oops, an error
Loading. Please wait.

20 Years In The Dakota Tab

by Hole
1,648 views 9 this week
no commentswrite comment
1 2 3 4 5
x 3
add to favorites
launch autoscroll
font size
0
reset
how to read this tab
guitar tuner
Autoscroll
slow
fast
+/-
esc
set tempo
stop
Author
Difficulty
Tuning
novice
E A D G B E
-----------------------------------------------------------------
  20 Years In The Dakota by Hole
-----------------------------------------------------------------

There are quite a few bass fills in this, but they consist solely of the root notes of the guitar parts,
so they are easy to figure out and play on guitar accordingly. I've only mapped the guitar portions as they
appear in the album recording.


Tuning: EADGBe


[Intro/Verse]    

e|--------|----------|----------|-------------------------------------------------------------|
B|--------|----------|----------|-------------------------------------------------------------|
G|--------|----------|----------|-------------------------------------------------------------|
D|--5-5-5-|-10-10-10-|-3--3-3-3-|-8-8-8-8-8-8-8-/-9-9-9-9-------------------------------------| x 8
A|--5-5-5-|-10-10-10-|-3--3-3-3-|-8-8-8-8-8-8-8-/-9-9-9-9-------------------------------------|
E|--3-3-3-|--8--8--8-|-1--1-1-1-|-6-6-6-6-6-6-6-/-7-7-7-7-------------------------------------|


   She spent 20 years in the Dakota
   Every single day was black in the Dakota

   Riot girls think you stop it
   You're forever in her debt
   Well, I know you haven't saved me
   And you haven't saved her yet

   She spent 20 years like a virus
   They want to burn the witches inside us

   Woah, yeah, you don't fuck with the Fabulous Four
   Or you'll spend the rest of your life
   Picking things up off the floor


[Pre-chorus]

e|--1--1-1-1-1-1-1-1-1-1-1-1-|----------------------------------------------------------------|
B|--0--0-0-0-0-0-0-0-0-0-0-0-|-1--1-1-1-1-1-1-1-1-1-------------------------------------------|
G|--0--0-0-0-0-0-0-0-0-0-0-0-|-2--2-2-2-2-2-2-2-2-2-------------------------------------------|
D|--0--0-0-0-0-0-0-0-0-0-0-0-|-0--0-0-0-0-0-0-0-0-0-------------------------------------------| x 2
A|--2--2-2-2-2-2-2-2-2-2-2-2-|-3--3-3-3-3-3-3-3-3-3-------------------------------------------|
E|--3--3-3-3-3-3-3-3-3-3-3-3-|----------------------------------------------------------------|
   

   She's still alive, but I am sure
   That all the stars belong to her



[Verse w/distortion]

e|--------------------------|----------|------------------------------------------------------|
B|--------------------------|----------|------------------------------------------------------|
G|--------------------------|----------|------------------------------------------------------|
D|-5-5-5-5-5-5-5-/-10-10-10-|-3--3-3-3-|-8-8-8-8-8-8-8-/-9-9-9-9-9-9-9-9----------------------| x 2
A|-5-5-5-5-5-5-5-/-10-10-10-|-3--3-3-3-|-8-8-8-8-8-8-8-/-9-9-9-9-9-9-9-9----------------------|
E|-3-3-3-3-3-3-3-/--8--8--8-|-1--1-1-1-|-6-6-6-6-6-6-6-/-7-7-7-7-9-9-9-9----------------------|


   On California king-sized beds
   She's wrapped in rags inside my head



[Pre-chorus]

e|--1--1-1-1-1-1-1-1-1-1-1-1-|----------------------------------------------------------------|
B|--0--0-0-0-0-0-0-0-0-0-0-0-|-1--1-1-1-1-1-1-1-1-1-------------------------------------------|
G|--0--0-0-0-0-0-0-0-0-0-0-0-|-2--2-2-2-2-2-2-2-2-2-------------------------------------------|
D|--0--0-0-0-0-0-0-0-0-0-0-0-|-0--0-0-0-0-0-0-0-0-0-------------------------------------------| x 2
A|--2--2-2-2-2-2-2-2-2-2-2-2-|-3--3-3-3-3-3-3-3-3-3-------------------------------------------|
E|--3--3-3-3-3-3-3-3-3-3-3-3-|----------------------------------------------------------------|

   This is the the story, this is the story of someone's wife
   Been in black pools her whole life
  (Nah, nah, nah, nah, I don't remember, I forget)


[Bass fill]

   Oh baby, dry your dirty eyes
   My water breaks like turpentine



[Chorus]
           
e|--------------------------------------------------------------------------------------------|
B|--------------------------------------------------------------------------------------------|
G|--------------------------------------------------------------------------------------------|
D|-5-5-5-5-5-5-5-5-5-5-5-5-5-5-/-10-10-10-10-10-10-10-10-10-10-10-10-10-10--------------------| x 2
A|-5-5-5-5-5-5-5-5-5-5-5-5-5-5-/-10-10-10-10-10-10-10-10-10-10-10-10-10-10--------------------|
E|-3-3-3-3-3-3-3-3-3-3-3-3-3-3-/--8--8--8--8--8--8--8--8--8--8--8--8--8--8--------------------|


  
[Bass fill]

   The pee-girl burns to be the bride
   Your ever lovely suicide



 [Chorus]

e|--------------------------------------------------------------------------------------------|
B|--------------------------------------------------------------------------------------------|
G|--------------------------------------------------------------------------------------------|
D|-5-5-5-5-5-5-5-5-5-5-5-5-5-5-/-10-10-10-10-10-10-10-10-10-10-10-10-10-10--------------------| x 2
A|-5-5-5-5-5-5-5-5-5-5-5-5-5-5-/-10-10-10-10-10-10-10-10-10-10-10-10-10-10--------------------|
E|-3-3-3-3-3-3-3-3-3-3-3-3-3-3-/--8--8--8--8--8--8--8--8--8--8--8--8--8--8--------------------|

   Hey, yeah, hey, yeah
   Are they coming for me? Are they coming soon?
   (Nah, nah, nah, nah, nah, nah, nah, nah)


[Bass fill outro]

   Hey Jude, hey Jude
   (Nah, nah, nah, nah, nah, nah, nah, nah)
   Are they coming for me, Judy Judy, are they coming soon?
   (I don't remember I forget)

   The pee-girl burns to be the bride
   Your ever-lovely suicide
   (I haven't live there yet,
   I don't remember, I forget)
   Hey nah, nah, nah, nah, nah
   I don't remember, I forget


********************************
 / = slide up
********************************
Suggest correction
Give kudos to tab author, rate the tab!
1 2 3 4 5
comments
print report bad tab
guest
You may want to rate the tab now too:
select rating
Wanna post a correction for this tab? Suggest correction