Oops, an error
Loading. Please wait.

Asking For It Tab

version 1
version 1

Whole song

Interactive

by Hole
16,943 views 33 this week
4 commentsread comments
1 2 3 4 5
x 10
add to favorites
launch autoscroll
font size
0
reset
how to read this tab
guitar tuner
Autoscroll
slow
fast
+/-
esc
set tempo
stop
Help us to improve Ultimate-Guitar.com Take our survey!
×
Difficulty
intermediate
Right now guys...i know how lame the other tabs for this song are, so im settling it 
now (hopefully). This is as close as i can get it...if you figure out ne other bits then 
free to add but this sounds pretty good with the song.

Artist: Hole
Album: Live Through This (and many others :P)

DROP D TUNING. (although you can play it normal tuning...i will tab it below. Also there 
a little variation on the picking in some versions of this song so i'll tab that too) 
i actually i think it sounds better with the variation...but whatever!

Verse
e---2----0--------------------------------|
B---3----2----2---------------------------|
G---2----0----2---------------------------|
D--------2----2---------0-------0---------|
A--------3------------4------4------------|
D-------------------5-----5---------------| (Just strum to the song :P)

Every time that i sell myself to you, i feel a little bit cheaper than i need to.....


e----1-----2----|
B----1-----3----|
G----2-----2----|
D----3----------|
A----3----------|
D---------------|  (you can play the F as a barre chord, but dnt strum the E)

Was she asking for it...was she asking nice? She was asking for it, did she ask you twice?

e------3---0----|
B------3---2----|
G------2---0----|
D----------2----|
A----------3----|
D---------------| (Repeat accordingly)

And if you live through this with me i swear that i will die for you...

e-----2--3--2------0--1-------------|
B-----3--3--3------1--1----3/5---5--|
G-----2--2--2------0--0----2/4---4--|
D-----------------------------------|
A-----------------------------------|
D-----------------------------------| Repeat (this is played by both guitars)


So yeh that's it. I wont bother with the song structure, it's pretty easy to strum along 
The last part with the slides are ok i think, its the way i saw Eric Erlanderson do it 
unplugged so hopefully i havent messed it up!!

STANDARD TUNING

If you wanna play standard all you gotta play is
e--------------|
B--------------|
G--------------|
D--------0-----|
A------4-------|
E----3---------| (so 3 instead of 5 on the E string :P)

THE VARIATION i mentioned above...doesnt really make much difference but it sounds nice

e-------------------------|
B-------------------------|
G---------------------0---|
D------------0------0-----|
A----------4------4-------|
D--------5----------------|

HOPE THAT'S OK...IT'S ONE OF MY FIRST TABS REALLY SO ANY HINTS OR TIPS ARE OK....BUT 
NO "I HATE COURTNEY" COMMENTS PLEASE....THEY'RE LAME.
xxx
Suggest correction
comments
print report bad tab
4 comments total. Showing first comments.
0 reply
iamcourtneylove 10 Mar 25, 2006 08:44 AM

May i just say this is my tab, so any comments forward to me :) Thanks xxx

0 reply
nirvana23freak 50 Oct 28, 2007 10:48 PM

"I hate Courtney"

Im just kidding...sort of. i love this version with Cobain on backing vocals

+2 reply
yogua 10 Dec 08, 2008 08:27 PM

Yeah that version rocks, nice work (if its really yours)

guest
You may want to rate the tab now too:
select rating
Wanna post a correction for this tab? Suggest correction