Oops, an error
Loading. Please wait.

Awful Tab

version 3
version 3

Whole song

Interactive

by Hole
135 views 1 this week
no commentswrite comment
1 2 3 4 5
3 more votes to show rating
add to favorites
launch autoscroll
font size
0
reset
how to read this tab
guitar tuner
Autoscroll
slow
fast
+/-
esc
set tempo
stop
Help us to improve Ultimate-Guitar.com Take our survey!
×
Author
Difficulty
intermediate
Hole - Awful (Celebrity Skin)



 Intro
(listen for strumming)
e- -0----------0-----0---------------------------------|
B- -0----------0-----0---------------------------------|
G- -9----------4-----2---------------------------------|
D- -9----------4-----2---------------------------------|
A- -7----------2-----0---------------------------------|
E- ----------------------------------------------------|

e- -0----------------0---------------------------------|
B- -0----------------0---------------------------------|
G- -9-(8/7/6/5/4)----2---------------------------------|
D- -9--8/7/6/5/4-----2---------------------------------|
A- -7--6/5/4/3/2-----0---------------------------------|
E- ----------------------------------------------------|


 Verse

e- -0----------0-----0---------------------------------|
B- -0----------0-----0---------------------------------|
G- -9----------4-----2---------------------------------|
D- -9----------4-----2---------------------------------| x2
A- -7----------2-----0---------------------------------|
E- ----------------------------------------------------|

e- -0----------0-----0---------------------------------|
B- -0----------0-----0---------------------------------|
G- -1----------4-----2---------------------------------|
D- -2----------4-----2---------------------------------| x2
A- -2----------2-----0---------------------------------|
E- -0--------------------------------------------------|


 Chorus
(liten for strumming)
e- -0----------0----------0----0----0------------------|
B- -0----------0----------0----0----0------------------|
G- -6----1-2---6----1-2---6----4----2------------------|
D- -6----2-2---6----2-2---6----4----2------------------|
A- -4----2-0---4----2-0---4----2----0------------------|
E- ------0----------0----------------------------------|


 Bridge 1
(listen for rhythm)
e- ----------------------------------------------------|
B- ----------------------------------------------------|
G- ------9-------------9-------------------------------|
D- ----9----7-9-7----9----7-9-7------------------------| x3
A- -7-------------0------------------------------------|
E- ----------------------------------------------------|

e- -0-------------0-------------0----------------------|
B- -0-------------0-------------0----------------------|
G- -9-------------4-------------2----------------------|
D- -9-------------4-------------2----------------------|
A- -7-------------2-------------0----------------------|
E- ----------------------------------------------------|


 Bridge 2

e- ----------------------------------------------------|
B- ----------------------------------------------------|
G- ----0-------0-------0-------0-----------------------|
D- -2-----2-2------------------------------------------| x2
A- -2-----2-2------------------------------------------|
E- -0-----0-0------------------------------------------|


 Last Verse

e- ------------------7-----12--------------------------|
B- --------------------7------10-----------------------|
G- -----------------9-----9----------------------------|
D- -9----/8/7/6/5\-9-----9-----------------------------| x2
A- -7----/6/5/4/3\7-----0------------------------------|
E- ----------------------------------------------------|

e- -0----------0-----0---------------------------------|
B- -0----------0-----0---------------------------------|
G- -1----------4-----2---------------------------------|
D- -2----------4-----2---------------------------------| x2
A- -2----------2-----0---------------------------------|
E- -0--------------------------------------------------|


Intro
Verse
Chorus
Verse
Chorus
Bridge 1
Verse
Bridge 2
Last Verse

End On

e- (0)
B- (0)
G- -1-
D- -2-
A- -2-
E- -0-
Suggest correction
Give kudos to tab author, rate the tab!
1 2 3 4 5
comments
print report bad tab
guest
You may want to rate the tab now too:
select rating
Wanna post a correction for this tab? Suggest correction