Oops, an error
Loading. Please wait.

Beautiful Son Tab

version 1
version 1

Whole song

by Hole
3,815 views 9 this week
4 commentsread comments
1 2 3 4 5
accurate
x 6
add to favorites
launch autoscroll
font size
0
reset
how to read this tab
guitar tuner
Autoscroll
slow
fast
+/-
esc
set tempo
stop
Help us to improve Ultimate-Guitar.com Take our survey!
×
From: Starla15@aol.com
Date: Sun, 8 Oct 1995 15:31:26 -0400
Subject: hole- beautiful son tab

Hole - Beautiful Sun 
>From the DGC rarities cd.  It's on some single too I just don't know which
one.
From: Starla15@aol.com

This song is pretty easy if you can play power chords, it is just the same
thing over and over.  I don't know 1/2 of the lyrics because I can't decipher
Courtney's screams.  I think its about how Kurt was a cross dresser.


E-----------------------------------------------------------------------------
---
B-----------------------------------------------------------------------------
---
G-----------------------------------------------------------------------------
---
D------7--7-----8--8--8--8-----5--5--5--5--5-----------------------------
A------7--7-----6--8--8--8-----5--5--5--5--5-----------------------------
E------5--5-----6--6--6--6-----3--3--3--3--3-----------------------------

You look good in my dress
go get your friends to clean the mess
You look good in my clothes
I can see you ?  she ?

My Beautiful Son, my beautiful son
my beautiful son, my beautiful son

He had ribbons in his hair, and lipstick was everywhere
You look good in my dress
You look good in my clothes

My beautiful son, My beautiful son,
My beautiful son, My beautiful son   


Okay thats it.
Suggest correction
comments
print report bad tab
4 comments total. Showing first comments.
0 reply
QuieT RoOm 10 wrote on January 14 2008, 01:01 pm

She screams: "I can feel you where the doctor goes".

Very nice tab=)

0 reply
emsote 10 wrote on January 13 2010, 08:31 pm

very good tab! nice and simple! what you have there is good except what do you do for the part that says "you're barren"?

0 reply
goryriotgrrrl 10 wrote on December 8 2015, 10:32 am

I believe this isn't played on the third fret, but on the seventh. Just because it sounds a little too low.
Like this:

D------9--9-----10-10-10-10-----7--7--7--7--7-----------------------------
A------9--9-----10-10-10-10-----7--7--7--7--7-----------------------------
E------7--7-----8--8--8--8------5--5--5--5--5-----------------------------

guest
You may want to rate the tab now too:
select rating
Wanna post a correction for this tab? Suggest correction