Oops, an error
Loading. Please wait.

Beautiful Son Tab

version 3
version 3

Whole song

by Hole
523 views 1 this week
no commentswrite comment
1 2 3 4 5
please rate
add to favorites
launch autoscroll
font size
0
reset
how to read this tab
guitar tuner
Autoscroll
slow
fast
+/-
esc
set tempo
stop
Help us to improve Ultimate-Guitar.com Take our survey!
×
Author
Difficulty
novice
Main riff (it's played both with and without distortion):

e|---------------------------------------------------------------------------|
B|---------------------------------------------------------------------------|
G|--4-4-4-4-4/5-5\4\2--------------------------------------------------------|
D|--4-4-4-4-4/5-5\4\2--------------------------------------------------------|
A|--2-2-2-2-2/3-3\2\0--------------------------------------------------------|
E|---------------------------------------------------------------------------|

Solo thing:

e|--------------------------------------------------------------------------------|
B|--------------------------------------------------------------------------------|
G|----------4---4/9----------4---4------------4---4/9---0-2-4-5-4-5/9-9-9-b9-9-9--|
D|--2-h4-h5---5------2-h4-h5---5---4--2-h4-h5---5---------------------------------|
A|--------------------------------------------------------------------------------|
E|--------------------------------------------------------------------------------|

Lyrics:

You look good in my dress
I'll get your friends to clean the mess
You look good in my clothes
I can feel you where the doctor goes
My beautiful son (x4)
Yeah... I know (x2)
He had ribbons in his hair
And lipstick was everywhere
You look good in my dress
You look good in my dress
My beautiful son (x4)
Yeah..I know (x2)
You're barren... like me
You're barren
Yeah... I know (x2)
My beautiful son (x4)




I'm pretty sure that's about perfect! Very easy, enjoy!
Suggest correction
Give kudos to tab author, rate the tab!
1 2 3 4 5
comments
print report bad tab
guest
You may want to rate the tab now too:
select rating
Please do not post tabs as comments. Select "correction" instead!