Oops, an error
Loading. Please wait.

Berry Tab

version 2
version 2

Whole song

by Hole
418 views 3 this week
no commentswrite comment
1 2 3 4 5
3 more votes to show rating
add to favorites
×
Save as Personal and add changes to this tab that will be seen only by you. Learn more ›
launch autoscroll
font size
0
reset
how to read this tab
guitar tuner
Autoscroll
slow
fast
+/-
esc
set tempo
stop
Author
Difficulty
intermediate
-------------------------------------------------------------------------------
                             Berry by Hole
-------------------------------------------------------------------------------

Short, sweet, and to the point. The previous tab on here has it pretty much right, I'm
just adding a couple touches and making it a tad bit more informative in terms of when to
play what. It's a simple song with a few tricks (string bends, mutes, slides, etc), and 
Courtney is singing the word "yeah" through half of it, but it's fun and it sounds 
pretty cool.

Tabbed by: Scott

Tuning: Standard


Intro/Verse:

e|---------------------------|
B|---------------------------|
G|---------------------------|
D|-4x-x-4x-x-x-x-4x-x-4x-----|
A|-4x-x-4x-x-x-x-4x-x-4x-----|
E|-5b-x-5b-x-x-x-5b-x-5b-----|

   Well, yeah
   Well, yeah
   Well, yeah, yeah
   Yeah, yeah


Verse 2:

e|----------------------|
B|----------------------|
G|-9x-x-x-x-x-x-x-------|
D|-9x-x-x-x-x-x-x--9----|
A|-7x-x-x-x-x-x-x--9----|
E|-----------------7----|

    Do you wanna ride
    On my death machine?
    Who fuckin' died and made you the...


Intro/Verse:
    Well, yeah
    Oh, yeah
    Oh, yeah, yeah
    Yeah, yeah

Verse 2:
    Yeah, I kill
    What I need
    Yeah, I kill what I need


Chorus:

e|--------------------------------|
B|--------------------------------|
G|--------------------------------|
D|--7-7-7-7-7\5-5\2-2/5/7\5/7-----|
A|--5-5-5-5-5\5-5\2-2/5/7\5/7-----|
E|--5-5-5-5-5\3-3\0-0/3/5\3/5-----|

    When I die, won't you bury me?
    'Cause I buried you, baby, deep in me


Intro/Verse:
    Well, yeah
    Well, yeah
    Well, yeah, yeah
    Yeah, yeah

Verse 2:
    Cut it open
    What's inside?
    You're gonna drag me back there


Bridge:

e|-------------------|
B|-------------------|
G|-------------------|
D|-2-2-2-2-2/4-4/5---|
A|-2-2-2-2-2/4-4/5---|
E|-0-0-0-0-0/2-2/3---|

    Yeah, I wanna know
    Baby, say, I wanna know
    Never know
    Never know

Verse 2:
    Cut it open
    Say pretty please
    You're gonna drag me to there

Bridge:
    Yeah, I wanna know
    Baby, say, I wanna know
    Never know
    Never know

Chorus:
    And when I die, won't you bury me?
    'Cause I buried you, baby, deep in me
    Yeah, when you fall for the garbage man
    You wind up in the garbage

      [End on G chord 3/5/5]


***********************************
"b" = string bend
"x" = string mute
"/" = slide up
"\" = slide down
************************************
Suggest correction
Give kudos to tab author, rate the tab!
1 2 3 4 5
comments
print report bad tab
guest
You may want to rate the tab now too:
select rating
Wanna post a correction for this tab? Suggest correction