Oops, an error
Loading. Please wait.

Best Sunday Dress Tab

version 1
version 1

Whole song

Interactive

by Hole
3,623 views 3 this week
1 commentread comment
1 2 3 4 5
1 last vote to show rating
add to favorites
launch autoscroll
font size
0
reset
how to read this tab
guitar tuner
Autoscroll
slow
fast
+/-
esc
set tempo
stop
Help us to improve Ultimate-Guitar.com Take our survey!
×
Author
Difficulty
novice
INTRO

e|------0--0-----0--0---0--0--0--0--0--0--0|
B|------1--1-----1--1---0--0--0--0--0--0--0|
G|------0--0-----0--0---1--1--1--1--1--1--1|
D|------2--2-----2--2---2--2--2--2--2--2--2|
A|---0--------3---------2--2--2--2--2--2--2|
E|----------------------0--0--0--0--0--0--0|

e|------0--0-----0--0---0--3-----3------------------------------------------------|
B|------1--1-----1--1---0----3-----3----------------------------------------------|
G|------0--0-----0--0---1------4-----4--------------------------------------------|
D|------2--2-----2--2---2---------------------------------------------------------|
A|---0--------3---------2---------------------------------------------------------|
E|--------------------------------------------------------------------------------|


VERSE

Use same chords from beginning of intro for the following:

Put on my best sunday dress
and i walk straight into this mess of mine
Put on my best sunday dress
and i walk straight into this mess....

Watching you burn....ahh ahh
Watching you burn....ahh ahh
Watching you burn....ahh ahh
Watching you burn....ahh

e|------0--0-----0--0---0--0--0--0--0--0--0|
B|------1--1-----1--1---0--0--0--0--0--0--0|
G|------0--0-----0--0---1--1--1--1--1--1--1|
D|------2--2-----2--2---2--2--2--2--2--2--2|
A|---0--------3---------2--2--2--2--2--2--2|
E|----------------------0--0--0--0--0--0--0|


CHORUS

And then, with the chords above the words:
  G        F       E    C
Pale blue eyes so dumb
  G        F       E    C
Pale blue eyes so far away
  G        F       E C
Take him too the river
  G        F       E
Forgive us all his pain

The Chords are...
     G     F      E      C
e|---3-----1------0------0---------------------------------------------------------|
B|---3-----1------0------1---------------------------------------------------------|
G|---0-----2------1------0---------------------------------------------------------|
D|---0-----3------2------2---------------------------------------------------------|
A|---2-----0------2------3---------------------------------------------------------|
E|---3------------0------0---------------------------------------------------------|

VERSE CHORDS AGAIN

Ive come here to confess
To the wind and the rain and the glorious fame
And ive come here all undressed
For the numb and the dumb and they all the same the name

That you burn....ahh ahh
Watching you burn....ahh ahh
Watching you burn....ahh ahh
Watching you burn....ahh


CHORUS

Use same chords as above chorus

Pale blue eyes so dumb
Pale blue eyes so far away
Take him too the river
Forgive us all his pain


Some picking for the following which I couldn't be bothered to figure out! (Sorry, I will!)

ooh ooh im coming undone, he comes from the cold mine
I see you shine like a diamond
And curse us all goodnight


VERSE CHORDS AGAIN

Put on my best sunday dress
and i walk straight into this mess off mine
and ive come here all undressed
all the posion and pain and i take what is mine
and you burn....ahh ahh
that you burn....ahh


CHORUS CHORDS AGAIN

Pale blue eyes so young
Pale blue eyes so far away
Take me too his sorrow
Forgive us all his pain

VERSE CHORDS AGAIN (but give it a bit of ooomph!)

WATCHING YOU BURN....AHH AHH(put on my best Sunday dress)
WATCHING YOU BURN....AHH AHH
WATCHING YOU BURN....YEAH AH(put on my best Sunday dress)
WATCHING YOU BURN....AHH AHH
WATCHING YOU BURN....AHH AHH(put on my best Sunday dress)
WATCHING YOU BURN....AHH AHH
WATCHING YOU BURN....YEAH AHH(put on my best Sunday dress)

Its simple enough. Enjoy!
Suggest correction
Give kudos to tab author, rate the tab!
1 2 3 4 5
comments
print report bad tab
1 comment total.
0 reply
emsote 10 Nov 28, 2009 03:45 PM

looks good

guest
You may want to rate the tab now too:
select rating
Wanna post a correction for this tab? Suggest correction