Oops, an error
Loading. Please wait.

Boys On The Radio Tab

version 1
version 1

Whole song

Interactive

by Hole
255 views 3 this week
no commentswrite comment
1 2 3 4 5
please rate
add to favorites
launch autoscroll
font size
0
reset
how to read this tab
guitar tuner
Tab Pro tools
  • play this tab
  • loop segment
  • change instrument
  • show fretboard
  • metronome
×
Best way to learn
"Boys On The Radio"
Autoscroll
slow
fast
+/-
esc
set tempo
stop
Contributor
Difficulty
intermediate
Hole - Boys On The Radio (Celebrity Skin)



Intro (listen for rhythm)

e- -3--3----3-----3----3-----3---3---------------------|
B- -1--1----1-----1----1-----1---3---------------------|
G- -2--0----2-----0----2-----0---0---------------------|
D- -3--2--0-0-2---2--0-0-2---2---0---------------0-1-3-|
A- -0--3--------3-3--------3-3---2---------0-1-3-------|
E- ----------------------------3-3-3/2/1/0-------------|

Verse

e- -0--0--0--0--0--0--3--3-----------------------------|
B- -1--1--1--1--1--1--3--3-----------------------------|
G- -2--0--2--0--2--0--0--0-----------------------------|
D- -3--2--3--2--3--2--0--0-----------------------------| x2
A- -0--3--0--3--0--3--2--2-----------------------------|
E- -------------------3--3-----------------------------|


Pre-Chorus

e- -3--3--0--0--0--0--0--0-----------------------------|
B- -1--1--3--3--1--1--3--3-----------------------------|
G- -2--0--0--0--2--0--0--0-----------------------------|
D- -3--2--0--0--3--2--0--0-----------------------------|
A- -0--3--2--2--0--3--2--2-----------------------------|
E- -------3--3--------3--3-----------------------------|


Chorus x3

e- ----------------------------------------------------|
B- ----------------------------------------------------|
G- ----------------------------------------------------|
D- -----5----------------------------------------------|
A- -3---3--5-------------------------------------------|
E- -1------3-------------------------------------------|


Post-Chorus

e- --------------------1-------5-1---------------------|
B- ----5-------5-6-5-----1----1------------------------|
G- ------5-----------------2-2-------------------------|
D- ---7----7--7-------3-----3--------------------------|
A- --7-------7-------3---------------------------------|
E- -5-------5-------1----------------------------------|


Verse 2

e- -0--0--0--0--0--0--3-3------------------------------|
B- -1--1--1--1--1--1--3-3------------------------------|
G- -2--0--2--0--2--0--0-0------------------------------|
D- -3--2--3--2--3--2--0-0--------0-1-3-----------------|
A- -0--3--0--3--0--3--2-2--0-1-3-----------------------|
E- -------------------3-3------------------------------|

e- -0--0--0--0--0--0--3-3------------------------------|
B- -1--1--1--1--1--1--3-3------------------------------|
G- -2--0--2--0--2--0--0-0------------------------------|
D- -3--2--3--2--3--2--0-0--2--0------------------------|
A- -0--3--0--3--0--3--2-2-------3-0--------------------|
E- -------------------3-3------------------------------|


Pre-Chorus


Chorus x4


Bridge 1 (if i let, you in...)

e- ----------------------------------------------------|
B- ----5-------5-6-5---6-5-3-1-0-1-3-0-0---------------|
G- ------5---------------------------------------------|
D- ---7----7--7-------7--------------------------------|
A- --7-------7-------7---------------------------------|
E- -5-------5-------5----------------------------------|

e- --------------------3-------------------------------|
B- ----5-------5---------3-----------------------------|
G- ------5-------5---------4---4-----------------------|
D- ---7----7--7----7--5-------5------------------------|
A- --7-------7-------5-------5-------------------------|
E- -5-------5-------3-------3--------------------------|

e- -3--3--3--3--3--3--0--------------------------------|
B- -1--1--1--1--1--1--3--------------------------------|
G- -2--0--2--0--2--0--0--------------------------------|
D- -3--2--3--2--3--2--0--------------------------------|
A- -0--3--0--3--0--3--2--------------------------------|
E- -------------------3--------------------------------|


Chorus x6


Bridge 2 (listen for rhythm)

e- ----3-----------------------------------------------|
B- ------1------1------------------3-------------------|
G- --------2------0------------------0-----------------|
D- -3-3------2-2----2-0-0-0-0-0---0----0---------------|
A- -0--------3--------2-2-2-2-2--2---------------------|
E- -------------------3-3-3-3-3-3----------------------|

e- ----3------------------------|----------------------|
B- ------1------1---------------|----------------------|
G- --------2------0-------------|----------------------|
D- -3-3------2-2----2-0-0-0-0-0-|----------------------|
A- -0--------3--------2-2-2-2-2-|-5--------------------|
E- -------------------3-3-3-3-3-|-3--------------------|


Chorus x4


e- ---------3------------------------------------------|
B- ---------3------------------------------------------|
G- ---------0------------------------------------------|
D- ----5----0------------------------------------------|
A- -3--3----2------------------------------------------|
E- -1-------3------------------------------------------|
comments
We did not receive enough feedback on this tab! Please rate:
print report bad tab
1 2 3 4 5
I want to post or [tab]
guest
You may want to rate the tab now too:
select rating
Please do not post tabs as comments. Select "correction" instead!