Oops, an error
Loading. Please wait.

Celebrity Skin Tab

version 1
version 1

Album

Whole song

Interactive

by Hole
9,146 views 3 this week
2 commentsread comments
1 2 3 4 5
x 5
add to favorites
launch autoscroll
font size
0
reset
how to read this tab
guitar tuner
Autoscroll
slow
fast
+/-
esc
set tempo
stop
Help us to improve Ultimate-Guitar.com Take our survey!
×
Hole - Celebrity Skin Full Album Tabs
All the songs in the album are here except for Heaven Tonight. We'll get it soon

______________________________________________________________________
Hole
Celebrity Skin

Tabbed by Nic Young 
http://garbageman.cjb.net

After watching the '98 MTV Awards many times, I changed the chorus around a bit.

Verse
"Oh make me over"
   A5    C#5   F#5
e|-----------------|
B|-----------------|
G|-----------------|
D|-7-7--11-11--4-4-|
A|-7-7--11-11--4-4-|
E|-5-5--9--9---2-2-|
Keep these notes short, except for the last F#5 before 
the chorus, which you should let ring.

Chorus
"Hey...so glad..."
e|------------------------------------------------------------------------|
B|---3-3-3-3--2-2-2-2--3-3-3-3--2-2-2-2-------------------3-3-3-3-3-3-3-3-|
G|---2-2-2-2--2-2-2-2--2-2-2-2--2-2-2-2----------4-4-4-4--2-2-2-2-2-2-2-2-|
D|---0-0-0-0--2-2-2-2--0-0-0-0--2-2-2-2--4-4-4-4-4-4-4-4--0-0-0-0-0-0-0-0-|
A|---------------------------------------4-4-4-4-2-2-2-2------------------|
E|---------------------------------------2-2-2-2--------------------------|

Bridge

 A              D         A      D
   When I wake up, in my makeup
 A         D        
It's too early
F# 
For that dress
 A               D      A                 D
Wilted and faded, somewhere in hollywood
A               D               
I'm glad I came here
 F#             
With your pound of flesh

The first two times through pick the chords like this:
     A    D
e|---------2-|
B|----2---3--|
G|---2---2---|
D|--2---0----|
A|-0---------|
E|-----------|

The third & fourth times through just play normal chords. On the 
F#, jam on the distortion and head into the verse.

Outro:
It's just the same as the verse, but when Courtney sings "No I'm not selling cheap" 
(the last lyric), play F#5 with a bit of tremolo, then play the main riff once again.

Thanks to Eddie Chan  for pointing out an error.

_______________________________________________________________________________

Awful
Hole
Celebrity Skin

Tabbed by Nic Young 
http://garbageman.cjb.net
and Medussa Plath 
http://members.aol.com/soundbee/

Asus2: -x-0-2-2-0-0-

Intro/Verse:
E  B5  Asus2

Chorus: 
                                       
E5                A5              C#5
They know how to break all the girls like you                                                        

E5        A5                   C#5
And they rob the souls of the girls like you                                                               

             E5                             B5            A5
And they break the hearts of the girls...

Post-second-chorus:

C#m    A
Hey, run away with the light,

C#m     A
          Run away it's divine,

C#5             A                    C#5        
     Let's run away yeah tonight and
                                        
         A5                              B5
We'll steal the light of the world...
 
Bridge:

 Em
 Oh, just shut up you're only sixteen...

_______________________________________________________________________________

Hit So Hard
Hole
Celebrity Skin

Tabbed by Nic Young 
http://garbageman.cjb.net
and Medussa Plath 
http://members.aol.com/soundbee/

Intro
Riff 1:
D-------------------4-4-4-4-4-4-4-4
A-4-4-4-4-4-4-4-4---5-5-5-5-5-5-5-5
E-5-5-5-5-5-5-5-5------------------
Guitar One plays that 6 times, with some strange effect. 
One the third time through, guitar two comes in with this:
 
Riff 2:
e-5-5-5-5--0-0-0-0-----------2-2-2-2-|
B-5-5-5-5--0-0-0-0--3-3-3-3--3-3-3-3-|
G-x-x-x-x-----------2-2-2-2--2-2-2-2-|
  
Verse: 

A
Put me up above the boy
A
The one I love I should destroy
A
My sweet tooth has burned a hole
   F#m
Forget about it all...

Chorus:

Riff 2: (As in the intro).

Bridge:

| A5 /  C#5 /  |  B5  G5 //  |  x4

_______________________________________________________________________________

Artist: Hole
Song: Malibu
Album: Celebrity Skin
Tuning: Normal
Transcribed by: Bruno Calatroni


intro and verse chord progression:

E---2----2----0----0----
B---3----3----3----2----
G---0----2----4----2----
D---2----0----4----2----
A---2---------2----0----
E---0-------------------


chorus:

E---------------------------0--0--0--0--0---2--2--2--2---0--0--0--0---
B----------3--3--3----------0--0--0--0--0---3--3--3--3---2--2--2--2---
G----------0--0--0----------0--0--0--0--0---2--2--2--2---2--2--2--2---
D----------0--0--0----------2--2--2--2--2---0--0--0--0---2--2--2--2---
A----------2--2--2----------2--2--2--2--2----------------0--0--0--0---
E---0--2---3--3--3---3--2---0--0--0--0--0-----------------------------


bridge chord progression

E---0-----0-------0------0--0--0--0----------           ------0-----
B---1-----3-------2------3--2--0--2----------last time  ------0-----
G---0-----2-------2------2--2--2--2----------           ------1-----
D---2-----0-------2------2--2--2--2----------           ------2-----
A---3-----X-------0------0--0--0--0----------           ------2-----
E---3-----2----------------------------------           ------0-----


end on:

E---2------------
B---3------------
G---2------------
D---0------------
A----------------
E----------------


please let me know what you think and email me at WeezerSP00@aol.com


_______________________________________________________________________________

HOLE
Reasons to be Beautiful
off of 1998 Celebrity skin
guitar and words

this is an awsome track, more back to the old skool daze.
if you want more mail me at   shampoop@hotmail.com

mindy----------


intro/main riff
repeat 2 times
distorted

e ----------------------------------------------|
B ----------------------------------------------|
G ----------------------------------------------|
D --5--5--5--55--x1313--13131313--8--8--8--88-8-|
A --5--5--5--55--x1313--13131313--8--8--8--88-8-|
E --3--3--3--33--x1111--11111111--6--6--6--66-6-|

verse 1 at :13 same as intro/main riff 
play 4 times 
distorted


then Figure B clean tone
10 good reason's....that i can't.. find........
e -------------------------------------------------|
B ---------------------------------
http://garbageman.cjb.net

Verse:

A lot of these notes are randomly left out throughout the song. 
Improvise.
e---------|----------|----------|-----------|
B-----3---|-----3----|----------|-----------|
G-------4-|----------|-----7----|------7----|
D---4-----|-------7--|---7---7--|---7-----7-|
A-2-------|---5------|-5--------|-5---------|
E---------|-3--------|----------|-----------|

Play that riff 4 times. The last time; play an A instead of a D in the
forth bar (Bm, G, D, A)

Chorus:
 
B5 G5 D5 B5                     G5  D5
       Remember, you promised me-e-e-e
B5                          G5  D5
I'm dying, I'm dying please...
   B5                    G5  D5
I want to, I need to be...
    B5
Under your skin
 
Bridge:

e---------------------------------|
B---------------------------------|
G-----7-------7-------------------|
D---7-------7---2-2-2-2--5-5-5-5--|
A-5-----5-4-----2-2-2-2--5-5-5-5--|
E---------------0-0-0-0--3-3-3-3--|
Play 4 times

Then:
B G D A
Play 4 times

_______________________________________________________________________________

Use Once & Destroy
Hole
Celebrity Skin

Tabbed by Nic Young 
http://garbageman.cjb.net

Played at the end of the first verse
e------7--------7---|
B---7----7---7----7-|
G-4--------4--------|
D-------------------|
A-------------------|
E-------------------|

The verses w/guitar:
B A D B

Pre-Chorus:
    B5               A5       D5    B5 
It might as well it might as well hurt...
    B5         A5      D5     B5
It might as well it might as well
Chorus:
        E5      C5     G5
I went down to rescue you,
        E5     C5   G5 
I went all the way down,
           E5      C5     G5 
Fill your hungry wretched life,
           E5         C5     G5    A5
Here they come it's closing time....

Bridge:
B5             D5
All dressed in red,
B5           A5
Always the bride,
B5            D5
Off with her head,
B5              A5
All dressed in white,
B5            A5 
Off with her head
D5 B5 A5

Outro:
G5 D5 A5 F5

_______________________________________________________________________________

Northern Star
Hole
Celebrity Skin

Tabbed by Nic Young 
http://garbageman.cjb.net

Intro:
Rhy. Fig #1
e--------------------------------|
B--------------------------------|
G---------------------------1--2-|
D-----3----------2-------------2-|
A---3---------3----------2-----0-|
E-1-----1--0--------0--0---------| 

Rhy. Fig #2
e-----------------------------------|
B------1------------1----------0----| 
G---0------------0----------1-----2-|
D-3-------3---2--------2--2-------2-|
A-----------------------------------|
E-----------------------------------|

Before the verses strum Em several times. 

Verse:

Am Em 
Am Em 
Am Em 
Am C Em 
Am D 
Em Em/F# 
Am D 
C Em 
Am D C Em 
Then play Rhy. Fig #1

Chorus 
G (Rhy. Fig #1) (Play 4 times) 

G (Rhy. Fig #1, then #2)

Bridge:
E  C 
E  C  
Am D 
E  C      
E  C    
Am D     
G  Em

_______________________________________________________________________________

Boys On The Radio
Hole
Celebrity Skin

Tabbed by Nic Young 
http://garbageman.cjb.net

Intro:
e|-1-1-3-3-1-1-3-3-1-1-3-3-3-3-|
B|-1-1-1-1-1-1-1-1-1-1-1-1-3-3-|
G|-2-2-0-0-2-2-0-0-2-2-0-0-0-0-|
D|-3-3-3-3-3-3-3-3-3-3-3-3-0-0-|
A|-3-3-3-3-3-3-3-3-3-3-3-3-2-2-|
E|-1-1-----1-1-----1-1-----3-3-|

Verse:
F              C
  Do what you want
F               C
  Cause I'll do anything and 
F               C   G
  I'll take the blame 

Chorus:

F5 C5 G5
Play that 5 times then go into this:

e-----------------------------1-----------5-1----|
B------5----------5-6-5--------1-------1-----1---|
G--------5-----------------------2---2-----------|
D----7-----7----7-----------3-----3--------------|
A--7----------7-----------3----------------------|
E-5--- ------5----------1------------------------|

Instead of playing the above, after the second chorus, play this:
e------------------------------------------|
B------------------------------------------|
G------------------5-5-5-5-5-5-------------|
D---3-3-3-3-3-3-3--5-5-5-5-5-5--5-5-5-5----|
A---3-3-3-3-3-3-3--3-3-3-3-3-3--5-5-5-5----|
E---1-1-0-1-1-1-1---------------3-3-3-3----|

Bridge:
Pick out these chords:
Am F C G

Outro:
F C G

_______________________________________________________________________________

Playing Your Song
Hole
Celebrity Skin

Tabbed by Nic Young 
http://garbageman.cjb.net

That riff that pops up everywhere:
e-----4---4------------0-0-0--------|
B---6---5---6h7p6---2--------2h3p2--|
G-6---------------2-----------------|
One guitar plays that, another guitar plays a C#5 A5 
sequence above it.
 
Verse: 

C#5 A5 C#5 A5 D5 C#5

Chorus:

D5 C#5 A5 D5 A5 D5 C#5

Bridge:

One guitar plays this:
C#m A G#
The other guitar feeds back.

_______________________________________________________________________________

Petals
Hole
Celebrity Skin

Verse:
C  E  C  E  C  E  Am

Play the C Like this:
-x-3-2-0-0-0-

Chorus:
Am  C  Em

Bridge:
E5  A5  E5  A5
E5  A5  C5  E5
C5  E5  F5  A5
C5  A5  F5  A5
A5  F5  F5  A5
Suggest correction
comments
print report bad tab
2 comments total.
0 reply
Jnciii3 0 Mar 02, 2002 12:00 AM

this is cool and all at once

0 reply
iamcourtneylove 10 Dec 19, 2005 04:44 AM

Where's Heaven Tonight?

guest
You may want to rate the tab now too:
select rating
Wanna post a correction for this tab? Suggest correction